Punk Rock Classic

Red Hot Chili Peppers

Tom: G
Riff

#1t1##1t2#e|-----------------------------------|
B|-----------------------------------|
G|-----7--8--9--9--9-----------------|
D|--7--7--8--9--9--9-----------------|
A|--7--5--6--7--7--7-----------------|
E|--5--------------------------------|#/1t2##/1t1#



#2t1##2t2#e|-----------------------------------|
B|-----------------------------------|
G|--12--11---------------------------|
D|--12--11--10--12--7----------------|
A|--10--9---10--12--7----------------|
E|----------8---10--5----------------|#/2t2##/2t1#
Composição: Colaboração e revisão: wilsonpilson