busca

Punk Rock Classic

Red Hot Chili Peppers

Tom: A
Riff

e|-----------------------------------|
B|-----------------------------------|
G|-----7--8--9--9--9-----------------|
D|--7--7--8--9--9--9-----------------|
A|--7--5--6--7--7--7-----------------|
E|--5--------------------------------|


e|-----------------------------------|
B|-----------------------------------|
G|--12--11---------------------------|
D|--12--11--10--12--7----------------|
A|--10--9---10--12--7----------------|
E|----------8---10--5----------------|

Clipes