Tom: G
[Intro]

#1t1##1t2#E|------------------------------|
B|------------------------------|
G|------------------------------|
D|----------5-5-5-----5-5-5-----|
A|------------------------------|
E|-12\\\0-----------------------|#/1t2##/1t1#

[Pre-Refrão]

#2t1##2t2#E|-----------|
B|-----------|
G|-----------| X4
D|---5-7--7--|
A|-7---------|
E|-----------|#/2t2##/2t1#

[Refrão]

#3t1##3t2#E|-----------8-8--8-8-|--------------------------------|
B|-----------8-8--8-8-|--------------------------------|
G|--------------------|---5----------------------------| 2 Vezes o conjunto todo
D|-----5--7-----------|------7--5----------------------|
A|--7-----------------|--------------------------------|
E|--------------------|--------------------------------|#/3t2##/3t1#

[Pausa]

#4t1##4t2#E|----------------|
B|----------------|
G|----------------|
D|----------------|
A|----------------|
E|--12\\\0--------|#/4t2##/4t1#

[Interlúdio]

#5t1##5t2#E|------------------------------------|
B|---------------8/-------------------|
G|---------------7/-------------------|
D|--5------------6/-----------5-------|
A|----7-7-7-5-7--7/---5-7-7-7---7-7---|
E|------------------------------------|#/5t2##/5t1#

[Outro]

#6t1##6t2#E|---------------------------------------------|
B|-8---7---8---7---8---3---1---3---8---7---10--|
G|-9---7---9---7---9---4---2---4---9---7---9---|
D|---------------------------------------------|
A|---------------------------------------------|
E|---------------------------------------------|#/6t2##/6t1#

#7t1##7t2#E|------------------------------------12-------|
B|-8--11---12---8------10---11---12---12-------|
G|-9--10---12---9------9----10---12---12-------|
D|---------------------------------------------|
A|---------------------------------------------|
E|---------------------------------------------|#/7t2##/7t1#
Composição: Colaboração e revisão: Leo CerrettiLucaskatrysonBruno Secaf