busca

Readymade

Red Hot Chili Peppers

Tom: D
Introdução: (Riff de toda a música)

E|-----------------------------------------------------------------------|
B|-----------------------------------------------------------------------|
G|-----------------------------------------------------------------------|
D|--------5----------------5----------------5-------------------------5--|
A|5-7-7-5---7-5-7--5-7-7-5---7-5-7--5-7-7-5---7-5-7-------------5-6-7----|
E|------------------------------------------------------3-5-6-7----------|

Riff de fundo antes do 1º refrão:

E|-----------------------------------------------------------------------------------|
B|-----------------------------------------------------------------------------------|
G|-----------------------------------------------------------------------------------|
D|----------9--------------------9--------------------9---------------------------9--|
A|9-11-11-9---11-9-11--9-11-11-9---11-9-11--9-11-11-9---11-9-11------------9-11-9----|
E|----------------------------------------------------------------7-9-9-11-----------|

Refrão:

        G5       A5
E|--------|--------|-------------------------------------------------------|
B|--------|--------|-------------------------------------------------------|
G|--------|--------|-------------------------------------------------------|
D|---5----|---7----|-----------5-----------------------5-------------------|
A|---5----|---7----|-7-7---5-7-----5-7-------7-7---5-7-----5-7-------------|
E|---3----|---5----|-----7-------7-----7-5-3-----7-------7-----7-5-3-------|

        G5       A5
E|--------|--------|------------------------------------------------------|
B|--------|--------|------------------------------------------------------|
G|--------|--------|-----------------------------------------------7------|
D|---5----|---7----|-----------5-----------------------5-------7/9---7-5--|
A|---5----|---7----|-7-7---5-7-----5-7-------7-7---5-7-----5-7------------|
E|---3----|---5----|-----7-------7-----7-5-3-----7-------7----------------|

Riff de fundo antes do 2º refrão: (uma 8ª acima, mas com pequena variação)

E|-------------------------------------------------------------------------|
B|-------------------------------------------------------------------------|
G|-------------------------------------------------------------------------|
D|------------17h19h17----------------------17h19h17-----------------------|
A|17-19-19-17----------17-19----17-19-19-17----------17-19----17-19-19-17--|
E|-------------------------------------------------------------------------|

E|-------------------------------------------------------------------------|
B|-------------------------------------------------------------------------|
G|-------------------------------------------------------------------------|
D|17h19h17-----------------------------17---------------17h19b-------------|
A|---------17-19--------------17-19-17------17-19-19-17--------17-19--17-19|
E|----------------15-17-17-19----------------------------------------------|

E|-------------------------------------------------------------------------|
B|-------------------------------------------------------------------------|
G|-------------------------------------------------------------------------|
D|------17h19b--------------------17h19b----------------------------17-----|
A|19-17--------17-19--17-19-19-17--------17-19-------------17-19-17--------|
E|---------------------------------------------15-17-17-19-----------------|

Solo:

E|--15p-12--------15p-12-15p-12--------15p-12-15p-12--------|
B|---------15p-12---------------15p-12---------------15p-12-|
G|----------------------------------------------------------|
D|----------------------------------------------------------|
A|----------------------------------------------------------|
E|----------------------------------------------------------|

E|--15p-12--------15p-12-15p-12--------15p-12-15p-12--------|
B|---------15p-12---------------15p-12---------------15p-12-|
G|----------------------------------------------------------|
D|----------------------------------------------------------|
A|----------------------------------------------------------|
E|----------------------------------------------------------|

E|--15p-12------------------------------------15p-12--------|
B|---------15p-12--------15p-12-15p-12---------------15p-12-|
G|----------------14p-12---------------14p-12---------------|
D|----------------------------------------------------------|
A|----------------------------------------------------------|
E|----------------------------------------------------------|

E|---------15p-12---------------15p-12----------------------|
B|----------------15p-12---------------15p-12--------15p-12-|
G|--14p-12---------------14p-12---------------14p-12--------|
D|----------------------------------------------------------|
A|----------------------------------------------------------|
E|----------------------------------------------------------|

E|----------------------------------------------------------|
B|--15p-12--------15p-12-15p-12--------15p-12-15p-12--------|
G|---------14p-12---------------14p-12---------------14p-12-|
D|----------------------------------------------------------|
A|----------------------------------------------------------|
E|----------------------------------------------------------|

E|----------------------------------------------------------|
B|--15p-12-15p-12--------15p-12-15p-12--------15p-12--------|
G|----------------14p-12---------------14p-12--------14p-12-|
D|----------------------------------------------------------|
A|----------------------------------------------------------|
E|----------------------------------------------------------|

E|-------------------------------|-------------------------------------------|
B|--------------------15---------|-------------------------------------------|
G|--14b------14b---------14br----|-----(14)p-12--14--12--14b-------14br--12--|
D|-------------------------------|-------------------------------------------|
A|-------------------------------|-------------------------------------------|
E|-------------------------------|-------------------------------------------|

E|-----------------------------------|-----------------------------------|
B|-----------------------------------|-----------------------------------|
G|--14-----12----14b-----14br----12--|--14-----12----14b-----14br----12--|
D|-----------------------------------|-----------------------------------|
A|-----------------------------------|-----------------------------------|
E|-----------------------------------|-----------------------------------|

E|------------------------------|---------------------------|
B|----------------------0-17br--|----------------x-15-17-15-|
G|--14----12~-----------0-------|----------------x----------|
D|------------------------------|---------------------------|
A|------------------------------|---------------------------|
E|------------------------------|---------------------------|

E|---------------------------12----|------------15b------x--19----|
B|--15b-----------0-15-17-15-15b~--|----------0----------x--------|
G|----------------0----------------|----------0-------------------|
D|---------------------------------|------------------------------|
A|---------------------------------|------------------------------|
E|---------------------------------|------------------------------|

E|--18----19----18----19----18---18b--|---------------------|
B|------------------------------------|---------------------|
G|------------------------------------|---------------------|
D|------------------------------------|---------------------|
A|------------------------------------|---------------------|
E|------------------------------------|---------------------|

Depois do Solo
        D5       C#5      B5            A5      G#5      F#5               C#5
E|--------|--------|--------|    E|--------|--------|--------|        E|--------|
B|--------|--------|--------|    B|--------|--------|--------|        B|--------|
G|---7----|---6----|---4----|    G|--------|--------|--------|        G|---6b---|
D|---7----|---6----|---4----|    D|---7----|---6----|---4----| 2x     D|---6b---|
A|---5----|---4----|---2----|    A|---7----|---6----|---4----|        A|---4b---|
E|--------|--------|--------|    E|---5----|---4----|---2----|        E|--------|

Clipes