Rivers Of Avalon

Red Hot Chili Peppers

Am
123
X02210
C
123
X32010
F
234
133211
G
123
320003
Tom: G
Tom: C

INTRO:

#1t1##1t2#E|--------------------------------------------------
B|--------------------------------------------------
G|-----------------------------------------0--------  2x
D|---2---------------------0---2-0-------------2-2--
A|-0---0-2-3-----3---3-----------------3------------
E|-----------1-0---0---0-3---3-----3-1---1---1------#/1t2##/1t1#

VERSO:

#2t1##2t2#E|--------------------------------------------------
B|--------------------------------------------------
G|-----------------------------------------0--------  3x
D|---2---------------------0---2-0-------------2-2--
A|-0---0-2-3-----3---3-----------------3------------
E|-----------1-0---0---0-3---3-----3-1---1---1------#/2t2##/2t1#

#3t1##3t2#E|------------------------------------------------------
B|------------------------------------------------------
G|-----------------------------------------0-2-0-2-0-2-- 
D|---2---------------------0---2-0----------------------
A|-0---0-2-3-----3---3-----------------3----------------
E|-----------1-0---0---0-3---3-----3-1---1--------------#/3t2##/3t1#

Deep inside these sleeping shallows,
Far away where no-one goes now,
Take my place in golden space
Of TV stars that no-one knows now,

Deep, deep mystery is talkin' to me,
She's the giver of constant animation,
All around and ready to make a new formation,
You're the reason I'm in this world...

REFRÃO:[sequência 4x]

#4t1##4t2#E|--------------------------------------------------------------------------
B|--------------------------------------------------------------------------
G|--------------------------------------------------------------------------
D|--------14-14-14-14-12-14-------14-14-14-14-12-14------14-14-14-14-12-14--
A|--------------------------------------------------------------------------
E|-10-10---------------------8-8--------------------8-8---------------------#/4t2##/4t1#

#5t1##5t2#E|--------------------------
B|--------------------------
G|-14-12-12-14-12-12-14-12--
D|-14-14-14-14-14-14-14-14--
A|--------------------------
E|--------------------------#/5t2##/5t1#

I don't believe in everything I see,
Rivers of Avalon,
Your supernatural energy,
Part of my scenery,
What I belong to is your ecstasy,
Rivers of Avalon,
Your faith unwavering is key,

VERSO:

#6t1##6t2#E|--------------------------------------------------
B|--------------------------------------------------
G|-----------------------------------------0--------  3x
D|---2---------------------0---2-0-------------2-2--
A|-0---0-2-3-----3---3-----------------3------------
E|-----------1-0---0---0-3---3-----3-1---1---1------#/6t2##/6t1#

#7t1##7t2#E|------------------------------------------------------
B|------------------------------------------------------
G|-----------------------------------------0-2-0-2-0-2-- 
D|---2---------------------0---2-0----------------------
A|-0---0-2-3-----3---3-----------------3----------------
E|-----------1-0---0---0-3---3-----3-1---1--------------#/7t2##/7t1#

The clone of my own loneliness
Has got to fade, what am I known to?
Little garland in your starling,
Loving waves that I've succumbed to,
Deep, deep mystery is talkin' to me,
She's the giver of constant adulation,
All around and ready to make a new formation,
You're the reason I'm this world...

REFRÃO:[sequência 4x]

#8t1##8t2#E|--------------------------------------------------------------------------
B|--------------------------------------------------------------------------
G|--------------------------------------------------------------------------
D|--------14-14-14-14-12-14-------14-14-14-14-12-14------14-14-14-14-12-14--
A|--------------------------------------------------------------------------
E|-10-10---------------------8-8--------------------8-8---------------------#/8t2##/8t1#

#9t1##9t2#E|--------------------------
B|--------------------------
G|-14-12-12-14-12-12-14-12--
D|-14-14-14-14-14-14-14-14--
A|--------------------------
E|--------------------------#/9t2##/9t1#

I don't believe in everything I see,
Rivers of Avalon,
Your supernatural energy,
Part of my scenery,
What I belong to is your ecstasy,
Rivers of Avalon,
Your faith unwavering is key,
What do you see in me?

SOLO:

#10t1##10t2#E|------------------------------------------------------------------
B|------------------------------------------------------------------
G|------------------------------------------------------------------
D|--/7--7--7-7—7/14--12--10--9-9----/7--7--7-7—7/14--12--10--10/12--
A|------------------------------------------------------------------
E|------------------------------------------------------------------#/10t2##/10t1#

#11t1##11t2#E|--------------------------------------------------
B|--------------------------------------------------
G|--------------------------------------------------
D|--/7--7--7-7—7/14--12--10--9-9--7--7--7--7—7------
A|---------------------------------------------7~~--
E|--------------------------------------------------#/11t2##/11t1#

INTERLÚDIO:
Am         C             G
Deep, deep mystery is talkin' to me,
             F
She's the giver of constant animation,

Am               C             G
All around and ready to make a new formation,
              F
You're the reason I'm in this world...

REFRÃO :[sequência 6x]

#12t1##12t2#E|--------------------------------------------------------------------------
B|--------------------------------------------------------------------------
G|--------------------------------------------------------------------------
D|--------14-14-14-14-12-14-------14-14-14-14-12-14------14-14-14-14-12-14--
A|--------------------------------------------------------------------------
E|-10-10---------------------8-8--------------------8-8---------------------#/12t2##/12t1#

#13t1##13t2#E|-----------------------------
B|-----------------------------
G|-14-12-12-14-12-12-14-12...--
D|-14-14-14-14-14-14-14-14...--
A|-----------------------------
E|-----------------------------#/13t2##/13t1#

I don't believe in everything I see,
Rivers of Avalon,
Your supernatural energy,
Part of my scenery,
What I belong to is your ecstasy,
Rivers of Avalon,
Your faith unwavering is key,

I don't believe in everything I see,
Rivers of Avalon,
Your supernatural energy,
All that it means...
Composição: Colaboração e revisão: HansRafael SouzaRenan Neves