Rolling Sly Stone

Red Hot Chili Peppers

A
123
X02220
A5
12
X022XX
C
123
X32010
C5
134
X355XX
D
123
XX0232
D5
134
X577XX
G
123
320003
G5
134
355XXX
Tom: G
[Anthony Kiedis, John Frusciante, Flea, Chad Smith]

#1t1##1t2#E|---------------------------------------------------------------------------|
B|---------------------------------------------------------------------------|
G|---------------------------------------------------------------------------|
D|---------------------------------------------------------------------------|
A|-----------------2--3--3--3--3------------------------3--5--5--5--5--5-----|
E|---5--5--5--5-----------------------2--3--3--3--3--------------------------|#/1t2##/1t1#

After that is played twice the guitar part in the verse comes in:

#2t1##2t2#E|---------------------------------------------------------------------------|
B|-------------1-1------------1-1-------------------1-1----------------------|
G|---2--0--2----------2--0--2-----------2--0--2------------------------------|
D|---------------------------------------------------------------------------|
A|---------------------------------------------------------5~---5/7---5---3--|
E|---------------------------------------------------------------------------|#/2t2##/2t1#

#3t1##3t2#E|------------------------------------------------------------------8-8-8----|
B|-------------1-1------------1-1-------------------1-1------1h3----8-8-8----|
G|---2--0--2----------2--0--2-----------2--0--2------------------------------|
D|---------------------------------------------------------------------------|
A|---------------------------------------------------------------------------|
E|----------------------------------------------------------------------------|#/3t2##/3t1#


#4t1##4t2#E|-----------------------------------------------------------8-8-8-----------|
B|-------------3-1------------3-1-----------------1--1h3-----8-8-8-----------|
G|---2--0--2----------2--0--2-----------2--0--2-2----------------------------|
D|---------------------------------------------------------------------------|
A|---------------------------------------------------------------------------|
E|----------------------------------------------------------------------------|#/4t2##/4t1#

#5t1##5t2#E|---------------------------------------------------------------------------|
B|-------------3-1------------3-1-------------------1-1----------------------|
G|---2--0--2----------2--0--2-----------2--0--2-2----------------------------|
D|---------------------------------------------------------------------------|
A|-------------------------------------------------------5~-5/7--------------|
E|----------------------------------------------------------------------------|#/5t2##/5t1#

 PRE-CHORUS: (When Anothony sings Dum, dum, dum, dee ,dooo, or something like that...)
to the Cd to get the rythm and strumming right.

#6t1#PLAT TWICE:
       A    C    G    D
#6t2#E|----5----3----3----5-------------------------------------------------------|
B|----5----5----3----7-------------------------------------------------------|
G|----6----5----4----7-------------------------------------------------------|
D|----7----5----5----7-------------------------------------------------------|
A|----7----3----5----5-------------------------------------------------------|
E|----5---------3------------------------------------------------------------|#/6t2##/6t1#

CHORUS: I think John uses power chords, but using the major of the power chords will
fine, and again listen to the CD to get the rythm and stuff right:
#7t1#      C5  G5  A5      C5  G5  A5 C5     C5 G5 A5      C5 G5 A5 D5
#7t2#E|---------------------------------------------------------------------------|
B|---------------------------------------------------------------------------|
G|----5---------------5--------5--------5------------5--------7--------------|
D|----5--5--7---------5--5--7--5--------5--5--7------5--5--7--7--------------|
A|----3--5--7---------3--5--7--3--------3--5--7------3--5--7--5--------------|
E|-------3--5------------3--5--------------3--5---------3--5-----------------|#/7t2##/7t1#

Second Verses:

#8t1##8t2#E|----------------------------------------------------------------------------|
B|-------------1-1------------1-1-----------------1-1-------------------------|
G|---2--0--2----------2--0--2-----------2--0--2-------------------------------|
D|----------------------------------------------------------------------------|
A|-------------------------------------------------------5~--5/7--5p3h5-------|
E|----------------------------------------------------------------------------|#/8t2##/8t1#


#9t1##9t2#E|---------------------------------------------------------------------------|
B|-------------1-1------------1-1-------------------1-1----------------------|
G|---2--0--2----------2--0--2-----------2--0--2------------------------------|
D|---------------------------------------------------------------------------|
A|---------------------------------------------------------5~---5/7---5---3--|
E|---------------------------------------------------------------------------|#/9t2##/9t1#

#10t1##10t2#E|------------------------------------------------------------------8-8-8----|
B|-------------1-1------------1-1-------------------1--1h3----------8-8-8----|
G|---2--0--2----------2--0--2-----------2--0--2------------------------------|
D|---------------------------------------------------------------------------|
A|---------------------------------------------------------------------------|
E|---------------------------------------------------------------------------|#/10t2##/10t1#

#11t1##11t2#E|---------------------------------------------------------------------------|
B|-------------1-1------------1-1-------------------1-1----------------------|
G|---2--0--2----------2--0--2-----------2--0--2------------------------------|
D|---------------------------------------------------------------------------|
A|---------------------------------------------------------5~---5/7--10--10--|
E|---------------------------------------------------------------------------|#/11t2##/11t1#

#12t1##12t2#E|-----------------------------------------------------------8-8-8-----------|
B|-------------3-1------------3-1-------------------1-1h3----8-8-8-----------|
G|---2--0--2----------2--0--2-----------2--0--2-2----------------------------|
D|---------------------------------------------------------------------------|
A|---------------------------------------------------------------------------|
E|---------------------------------------------------------------------------|#/12t2##/12t1#

#13t1##13t2#E|-----------------------------------------------------------8-8-8-----------|
B|-------------3-1------------3-1-------------------1-1h3----8-8-8-----------|
G|---2--0--2----------2--0--2-----------2--0--2-2----------------------------|
D|---------------------------------------------------------------------------|
A|---------------------------------------------------------------------------|
E|---------------------------------------------------------------------------|#/13t2##/13t1#

PRE CHORUS HERE AGAIN

THEN CHORUS

This is when Anthony is singing 'let your jaw decide' (or somehing like that)
Listen to CD to get strumming right:

#14t1#        D       D                 C      C       G
#14t2#E|----------12-10-10-----------------10-7-7---3--3--3------------------------|
B|--7-7-7---7--7--7---#/14t2##/14t1#
Composição: Colaboração e revisão: Pedro MendonçaSidnei Oliveira