Salute To Kareem

Red Hot Chili Peppers

Tom: G
#1t1##1t2#E|----11----11--11--11-------12-----12--12--12--12-------11----11--11--11--|
B|----11----11--11--11-------14-----14--14--14--14-------11----11--11--11--|
G|----11----11--11--11-------12-----12--12--12--12-------11----11--11--11--|
D|-------------------------------------------------------------------------|
A|-------------------------------------------------------------------------|
E|-11---------------------7---------------------------11-------------------|#/1t2##/1t1#

#2t1##2t2#E|----15----x--15--15--15--------------------------------------------------|
B|----14----x--14--14--14--------------------------------------------------|
G|----12----x--12--12--12--------------------------------------------------|
D|-------------------------------------------------------------------------|
A|-------------------------------------------------------------------------|
E|-7-----------------------------------------------------------------------|#/2t2##/2t1#

#3t1#Riff 1:
#3t2#E|-------------------------------------------------------------------------|
B|-------------------------------------------------------------------------|
G|-------------------------------------------------------------------------|
D|----6-----4-5-6---------------6-----4-5-6-------------6-----4-5-6--------|
A|----------------4-5-6---------------------4-5-6-------------------4-5-6--|
E|-4----------------------4--4---------------------4-4---------------------|#/3t2##/3t1#

#4t1##4t2#E|-------------------------------------------------------------------------|
B|-------------------------------------------------------------------------|
G|-------------------------------------------------------------------------|
D|-------------------------------------------------------------------------|
A|-------4---2-3-4---2-3-4---2-3-4-----------------------------------------|
E|-4--4--------------------------------------------------------------------|#/4t2##/4t1#

#5t1#Riff 2:
#5t2#E|-------------------------------------------------------------------------|
B|-------------------------------------------------------------------------|
G|-------------------------------------------------------------------------|
D|----6-----4-5-6----------------8-----6-7-8--------------9-----7-8-9------|
A|----------------4-5-6----------------------6-7-8--------------------7-8-9|
E|-4-----------------------6--6---------------------7--7-------------------|#/5t2##/5t1#

#6t1##6t2#E|-------------------------------------11--11------------------------------|
B|-------------------------------------11--11------------------------------|
G|-------------------------------------11--11------------------------------|
D|-------11-----9-10-11----------------------------------------------------|
A|----------------------9-10-11--------------------------------------------|
E|-9--9-------------------------11-----------------------------------------|#/6t2##/6t1#

#7t1##7t2#E|----7--------------------------------------------------------------------|
B|----8--------------------------------------------------------------------|
G|-------------------------------------------------------------------------|
D|-------------------------------------------------------------------------|
A|-------------------------------------------------------------------------|
E|-------------------------------------------------------------------------|#/7t2##/7t1#

#8t1##8t2#E|-------------------------------------------------------------------------|
B|-------------------------------------------------------------------------|
G|-------------------------------------------------------------------------|
D|------------------10-9-10-9-10-9-----------------------------------------|
A|----10--10-12-12------------------10-10-12-12-----10--10-12-12-----------|
E|-12--------------------------------------------12------------------------|#/8t2##/8t1#

#9t1##9t2#E|-------------------------------------------------------------------------|
B|-------------------------------------------------------------------------|
G|-------------------------------------------------------------------------|
D|-10-9-10-9-10-9----------------------------------------------------------|
A|----------------10-10-12-12------10--------------------------------------|
E|------------------------------12-----10-12-12----12-10-12-10-12-10-------|#/9t2##/9t1#

#10t1##10t2#E|-------------------------------------------------------------------------|
B|--------------------------------------------------------------15---------|
G|-13-13-13-13-13-13-13-13----------------------------13--14------14-13----|
D|-------------------------12-12-12-12-12-12-12-12------12--12-------------|
A|-------------------------------------------------------------------------|
E|-------------------------------------------------------------------------|#/10t2##/10t1#

Composição: Colaboração e revisão: igor silva