Save The Population

Red Hot Chili Peppers

Bb
234
X13331
Cm
234
X35543
D
123
XX0232
Eb
234
X65343
Gm
34
355333
Tom: G
Intro: A bateria entra, depois vem esse solo de introdução...


#1t1##1t2#e|------------------10-10---------------------8-8---|
B|--8-11-----------------------8-11-----------------|
G|-------10--8-7--------------------10--8-7---------|
D|--------------------------------------------------|
A|--------------------------------------------------|
E|--------------------------------------------------|#/1t2##/1t1#

#2t1##2t2#e|---------------------------------------------|
B|--8-11---------10-10---10/11/10-8--6/8-------|
G|-------10--8-7--------------------------7----|
D|---------------------------------------------|
A|---------------------------------------------|
E|---------------------------------------------|#/2t2##/2t1#


Fim da introdução.

Quando o Anthony começa a cantar, o guitarrista mantém o mesmo riff
de introdução mudando apenas o final.

#3t1#riff 1:
#3t2#e|------------------13-13-13-13-------------------11-11-11--|
B|--8-11------------13-13-13-13---8-11----------------------|
G|-------10--8-7-----------------------10--8-7--------------|
D|----------------------------------------------------------|
A|----------------------------------------------------------|
E|----------------------------------------------------------|#/3t2##/3t1#

#4t1##4t2#e|-----------------10-10-10-10--8-8-8-8--6-6-6-6--5-5-5-5--4-4-4-4--|
B|--8-11-----------10-10-10-10--8-8-8-8--6-6-6-6--5-5-5-5--4-4-4-4--|
G|-------10--8-7----------------------------------------------------|
D|------------------------------------------------------------------|
A|------------------------------------------------------------------|
E|------------------------------------------------------------------|#/4t2##/4t1#

History's so strong 
History's so strong 
History's so strong 
History's so strong 

#5t1#riff 2:
#5t2#e|----------------------------------------------------|
B|---------------------------------------------7-7----|
G|------------------------------------------5--7-7----|
D|--5--8--------8/10-10-10-10---5--8------------------|
A|--------6-5-------------------------6-5-------------|
E|----------------------------------------------------|#/5t2##/5t1#

#6t1##6t2#e|----------------------------------------------2-2-2--|
B|---------------7--7h8-------------------------2-2-2--|
G|-----------------------7----------------------2-2-2--|
D|--5--8-------------------------5--8------------------|
A|--------6-5--------------------------6-5-------------|
E|-----------------------------------------------------|#/6t2##/6t1#

#7t1#Pré Refrão
#7t2#e|--3-x-x-3-x-x-3-x-x-3-x-x-3/--6-x-x-6-x-x-6-x-x-6-x-x-6--|
B|--3-x-x-3-x-x-3-x-x-3-x-x-3/--6-x-x-6-x-x-6-x-x-6-x-x-6--|
G|--3-x-x-3-x-x-3-x-x-3-x-x-3/--6-x-x-6-x-x-6-x-x-6-x-x-6--|
D|---------------------------------------------------------|
A|---------------------------------------------------------|
E|---------------------------------------------------------|#/7t2##/7t1#

#8t1##8t2#e|--11-11-11-11-11-11-11-11--8-8-8-8-8-8-8-8--10-10-10-10-10-----13-13-13--|
B|--11-11-11-11-11-11-11-11--8-8-8-8-8-8-8-8--10-10-10-10-10-----13-13-13--|
G|--11-11-11-11-11-11-11-11--8-8-8-8-8-8-8-8--10-10-10-10-10-----13-13-13--|
D|-------------------------------------------------------------------------|
A|-------------------------------------------------------------------------|
E|-------------------------------------------------------------------------|#/8t2##/8t1#

Gm
I put my cards upon the table 
Bb
I do the speakers 'cause I am able 
Gm
One picks is broken-down devotion 
Bb
I threw my pistol in the ocean 
Eb
Eyes wide with revelation 
Cm
Chime at the police station 
D
And when the verdict comes round 
I'm sure that you will go down 

Refrão: 
[Dica: faça uma pequena pestana com o dedo indicador
pegando as cordas E, B, G (na casa 12) facilitará no solinho do refrão.]
#9t1##9t2#e|-------15------------------------------------------------------|
B|-----------15-------13-15-13-15----------15------13-15-13-15---|
G|--12-----------12-----------------12-12------12----------------|
D|---------------------------------------------------------------|
A|---------------------------------------------------------------|
E|---------------------------------------------------------------|#/9t2##/9t1#

#10t1##10t2#e|---------------------------------------------------------|
B|---------15------13-15-13-15-----------15------13-15-13--|
G|--12-12------12-----------------12-12------12------------|
D|---------------------------------------------------------|
A|---------------------------------------------------------|
E|---------------------------------------------------------|#/10t2##/10t1#

#11t1##11t2#e|---15-------14-------------------------|
B|---------------------13--13-15-13-15---|
G|-------12--------12--------------------|
D|---------------------------------------|
A|---------------------------------------|
E|---------------------------------------|#/11t2##/11t1#

Base do refrão :

#12t1##12t2#e|-----------------|
B|-----------------|
G|--3-----5--------|
D|--3-----5-----5--|
A|--1-----3-----5--|
E|--------------3--|#/12t2##/12t1#


Refrão: 
Stay all night 
we save the population 
Stay all night 
we save the population 
Stay all night 
we save the population 
Stay all night 
we save the population 

(Instrumental Bridge) 

(riff da intro com algumas modifacações no final.)

(Riff: 1)
Pistol end its fawn 
Sell it to the lexicon 
A pistol landed hard 
Lot on bottom lines be drawn 

(Riff: 2)
Take another bottle down to proper lam the shrew 
Make another awful sound to rap the gothic through 
History's so strong 
History's so strong 

Pré-refrão : (repita a guitarra solo + esses acordes)

Gm
I put my cards upon the table 
Bb
I do the speakers 'cause I am able 
Gm
One picks is broken-down devotion 
Bb
I threw my pistol in the ocean 
Eb
Eyes wide with revelation 
Cm
Chime at the police station 
D
And when the verdict comes round 
I'm sure that you will go down 


Refrão:

stay all night we save the population.... (6 vezes)
Composição: Colaboração e revisão: thiago