busca

Shallow Be Thy Game

Red Hot Chili Peppers

Tom: E
Intro:
                                                                           4x     
e|--------------------------------------------------------------------|
b|--------------------------------------------------------------------|
g|--------------------------------------------------------------------|
d|--------------------------------------------------------------------|
a|--10--12--10--10--12--10--------------------------------------------|
e|--------------------------------------------------------------------|
     E5        B5      E5      B5                                  2x

e|--------------------------------------------------------------------|
b|--------------------------------------------------------------------|
g|-------------14--------------14-------------------------------------|
d|---14--------14------14------14-------------------------------------|
a|---14--------12------14------12-------------------------------------|
e|---12----------------12---------------------------------------------|


Verse:
          G5          G5        G5          G5  B5

e|--------------------------------------------------------------------|
b|--------------------------------------------------------------------|
g|--------12----------12--------12----------12--14--------------------|
d|--------12----------12--------12----------12--14--------------------|
a|--------10----------10--------10----------10--12--------------------|
e|-12-0-------10-12-------0-12------10-12-----------------------------|



Chorus:
        E5  D5   A5   E5   D5   A5

e|--------------------------------------------------------------------|
b|--------------------------------------------------------------------|
g|------9----7---------9----7-----------------------------------------|
d|------9----7----7----9----7----7------------------------------------|
a|------7----5----7----7----5----7------------------------------------|
e|----------------5--------------5------------------------------------|

   Outro:
                                                     8x
e|--------------------------------------------------------------------|
b|--------------------------------------------------------------------|
g|--------15----14----------------------------------------------------|
d|--------15----14----------------------------------------------------|
a|--------13----12----------------------------------------------------|
e|---0-12-------------------------------------------------------------|

Clipes

Cifra Club Pro

Aproveite o Cifra Club com benefícios exclusivos e sem anúncios
7 dias grátis
Cifra Club Pro
Aproveite o Cifra Club com benefícios exclusivos e sem anúncios
7 dias grátis