C5
134
X355XX
D
123
XX0232
Eb5
134
X688XX
Eb7
1234
X6564X
F5
134
133XXX
G5
134
355XXX
Gm
34
355333
Tom: G
(BASS INTRO)

#1t1#(Riff 1)
       Gm                Gm
#1t2#|-----------------|---------------|
|-----------------|---------------|
|-------3h5--3----|-------3h5--3--|
|--3h5---------5--|--3h5----------|   x4
|-----------------|---------------|
|-----------------|---------------|#/1t2##/1t1#


#2t1##2t2#|-------6h8p6----6---|------6h8p6----6-|
|---6h8-------h8---8-|--6h8-------h8---|
|--------------------|-----------------|
|--------------------|-----------------|   x2
|--------------------|-----------------|
|--------------------|-----------------|#/2t2##/2t1#

(Riff 1)

She's only 18
Don't like the Rolling Stones
She took the shortcut
To being fully grown
She got the mood ring
A little sister rose
A smell of Springsteen
A pair of pantyhoes


(Riff 2)

This talking picture show
Is leaking from a silhouette
She said my man you know
It's time to get your fingers wet


(Riff 1)

You hustle's busted when
You can't afford a cigarette
The last I heard from you
You were screaming "Handle It!"


(REfão)

 C5     Eb5
Knock the world
          G5
Right of its feet and
      F5
Straight unto its head

 C5    Eb5
Oompala
         G5
They're only laughing after
 F5
You are dead
 C5     Eb5
Fascinated
     G5
By the look of you
  F5
And what was said
 C5     Eb5
Make a play
          Eb7
For all the brightest minds
          D
And light will shed


(Riff 1)

I heard some P-Funk
Out on the road again
To get your head shrunk
Is what I recommend
It's in your bloodline
A perfect Frankenstein
Out on the lone kind
I'm gonna make you mine


(Riff 2)

It's understood you wrap your
Voodoo right around my neck
You got some glitter on your
Kitty at the discotheque


(Riff 1)

I'll put my loving in your oven
Not a head to check
The last I heard from you
You were screaming "Resurrect!"


(Refrão)

 C5     Eb5
Knock the world
          G5
Right of its feet and
      F5
Straight unto its head

 C5    Eb5
Oompala
         G5
They're only laughing after
 F5
You are dead

 C5     Eb5
Fascinated
     G5
By the look of you
  F5
And what was said
 C5     Eb5
Make a play
          Eb7
For all the brightest minds
          D
And light will shed


#3t1#(Solo)
#3t2#E|-------------------------------------------------------------|
B|-------------------------------------------------------------|
G|-------------------------------------------------------------|
D|---------1-3/5--1--3-1h3--------1-3/5--1-3-1-----------------|
A|----1/3---------------------1-3------------------------------|
E|-------------------------------------------------------------|#/3t2##/3t1#

#4t1##4t2#E|-------------------------------------------------------------|
B|---------------------------4b-------------6b7-4h6------------|
G|------3-5-3-5----------3-5----5------3-5---------------------|
D|--3/5--------------3/5---------------------------------------|
A|-------------------------------------------------------------|
E|-------------------------------------------------------------|#/4t2##/4t1#

#5t1##5t2#E|--------6----6-8---------------------------------------------|
B|---6/8-----8------8p6/4---6-6p4---4--6/8--6--6--4------------|
G|----------------------------------5--------------------------|
D|-------------------------------------------------------------|
A|-------------------------------------------------------------|
E|-------------------------------------------------------------|#/5t2##/5t1#

#6t1##6t2#E|-------------------------------------------------------------|
B|--6-6-6-6p4--6-6p4--6-6p4--6-6p4--6-6p4----------------------|
G|-------------------------------------------------------------|
D|-------------------------------------------------------------|
A|-------------------------------------------------------------|
E|-------------------------------------------------------------|#/6t2##/6t1#

#7t1##7t2#E|------------10b11--8v-------------x----13b15r13b15r13b15-----|
B|--6-4-6/8-8--------------------------------------------------|
G|-------------------------------------------------------------|
D|-------------------------------------------------------------|
A|-------------------------------------------------------------|
E|-------------------------------------------------------------|#/7t2##/7t1#

#8t1##8t2#E|--13b15-13p11-13---13/15--18~~-18/15-------------------------|
B|--------------------------------------18p16--18-18-18p16-----|
G|---------------------------------------------------------17--|
D|-------------------------------------------------------------|
A|-------------------------------------------------------------|
E|-------------------------------------------------------------|#/8t2##/8t1#

#9t1##9t2#E|----------19-------------------------------------------------|
B|-16-18b19-------19r18--18/16-18-18-18-16-----17~-------------|
G|------------------------------------------17-----------------|
D|-------------------------------------------------------------|
A|-------------------------------------------------------------|
E|-------------------------------------------------------------|#/9t2##/9t1#

(Refrão)

 C5     Eb5
Knock the world
          G5
Right of its feet and
      F5
Straight unto its head
 C5    Eb5
Oompala
         G5
They're only laughing after
 F5
You are dead
 C5     Eb5
Fascinated
     G5
By the look of you
  F5
And what was said
 C5     Eb5
Make a play
          Eb7
For all the brightest minds
          D
And light will shed
Composição: Anthony Kiedis / Chad Smith / Flea / John FruscianteColaboração e revisão: João PadilhaDiogo Carniel