busca

She's Only 18

Red Hot Chili Peppers

Tom: F
(BASS INTRO)

(Riff 1)
       Gm                Gm
|-----------------|---------------|
|-----------------|---------------|
|-------3h5--3----|-------3h5--3--|
|--3h5---------5--|--3h5----------|   x4
|-----------------|---------------|
|-----------------|---------------|


|-------6h8p6----6---|------6h8p6----6-|
|---6h8-------h8---8-|--6h8-------h8---|
|--------------------|-----------------|
|--------------------|-----------------|   x2
|--------------------|-----------------|
|--------------------|-----------------|

(Riff 1)

She's only 18
Don't like the Rolling Stones
She took the shortcut
To being fully grown
She got the mood ring
A little sister rose
A smell of Springsteen
A pair of pantyhoes


(Riff 2)

This talking picture show
Is leaking from a silhouette
She said my man you know
It's time to get your fingers wet


(Riff 1)

You hustle's busted when
You can't afford a cigarette
The last I heard from you
You were screaming "Handle It!"


(REfão)

 C5     Eb5
Knock the world
          G5
Right of its feet and
      F5
Straight unto its head

 C5    Eb5
Oompala
         G5
They're only laughing after
 F5
You are dead
 C5     Eb5
Fascinated
     G5
By the look of you
  F5
And what was said
 C5     Eb5
Make a play
          Eb7
For all the brightest minds
          D
And light will shed


(Riff 1)

I heard some P-Funk
Out on the road again
To get your head shrunk
Is what I recommend
It's in your bloodline
A perfect Frankenstein
Out on the lone kind
I'm gonna make you mine


(Riff 2)

It's understood you wrap your
Voodoo right around my neck
You got some glitter on your
Kitty at the discotheque


(Riff 1)

I'll put my loving in your oven
Not a head to check
The last I heard from you
You were screaming "Resurrect!"


(Refrão)

 C5     Eb5
Knock the world
          G5
Right of its feet and
      F5
Straight unto its head

 C5    Eb5
Oompala
         G5
They're only laughing after
 F5
You are dead

 C5     Eb5
Fascinated
     G5
By the look of you
  F5
And what was said
 C5     Eb5
Make a play
          Eb7
For all the brightest minds
          D
And light will shed


(Solo)
E|-------------------------------------------------------------|
B|-------------------------------------------------------------|
G|-------------------------------------------------------------|
D|---------1-3/5--1--3-1h3--------1-3/5--1-3-1-----------------|
A|----1/3---------------------1-3------------------------------|
E|-------------------------------------------------------------|

E|-------------------------------------------------------------|
B|---------------------------4b-------------6b7-4h6------------|
G|------3-5-3-5----------3-5----5------3-5---------------------|
D|--3/5--------------3/5---------------------------------------|
A|-------------------------------------------------------------|
E|-------------------------------------------------------------|

E|--------6----6-8---------------------------------------------|
B|---6/8-----8------8p6/4---6-6p4---4--6/8--6--6--4------------|
G|----------------------------------5--------------------------|
D|-------------------------------------------------------------|
A|-------------------------------------------------------------|
E|-------------------------------------------------------------|

E|-------------------------------------------------------------|
B|--6-6-6-6p4--6-6p4--6-6p4--6-6p4--6-6p4----------------------|
G|-------------------------------------------------------------|
D|-------------------------------------------------------------|
A|-------------------------------------------------------------|
E|-------------------------------------------------------------|

E|------------10b11--8v-------------x----13b15r13b15r13b15-----|
B|--6-4-6/8-8--------------------------------------------------|
G|-------------------------------------------------------------|
D|-------------------------------------------------------------|
A|-------------------------------------------------------------|
E|-------------------------------------------------------------|

E|--13b15-13p11-13---13/15--18~~-18/15-------------------------|
B|--------------------------------------18p16--18-18-18p16-----|
G|---------------------------------------------------------17--|
D|-------------------------------------------------------------|
A|-------------------------------------------------------------|
E|-------------------------------------------------------------|

E|----------19-------------------------------------------------|
B|-16-18b19-------19r18--18/16-18-18-18-16-----17~-------------|
G|------------------------------------------17-----------------|
D|-------------------------------------------------------------|
A|-------------------------------------------------------------|
E|-------------------------------------------------------------|

(Refrão)

 C5     Eb5
Knock the world
          G5
Right of its feet and
      F5
Straight unto its head
 C5    Eb5
Oompala
         G5
They're only laughing after
 F5
You are dead
 C5     Eb5
Fascinated
     G5
By the look of you
  F5
And what was said
 C5     Eb5
Make a play
          Eb7
For all the brightest minds
          D
And light will shed

Clipes