busca

She's Only 18

Red Hot Chili Peppers

Riff 1
G|----------3-----------3-----3----------3-----------3--------|
D|------3-5---5-3---3-5---3-5--------3-5---5-3---3-5---3-5-3--|
A|--3-5-----------5----------------5-----------5--------------|
E|------------------------------------------------------------|x6

G|------------------------------------------------------------------------------------------|
D|-----------1-1-1--1--1----------3-3-3--3-3-3-----------1-1-1--1--1------------------------|
A|--3---3--3------------------------------------3---3--3------------------------------------|
E|-----------------------3---3--3------------------------------------3---3--3--1-1-1--1-1-1-|

G|-----------------------------------------------------------------------------------3-(7)x9|
D|-----------1-1-1--1--1----------3-3-3--3-3-3-----------1-1-1--1--1-0-0-0-0-0-0-0-0--------|
A|--3---3--3------------------------------------3---3--3------------------------------------|
E|-----------------------3---3--3-----------------------------------------------------------|

Riff 1
G|----------3-----------3-----3----------3-----------3--------|
D|------3-5---5-3---3-5---3-5--------3-5---5-3---3-5---3-5-3--|
A|----5-----------5----------------5-----------5--------------|
E|------------------------------------------------------------|x5

G|------------------------------------------------------------------------------------------|
D|-----------1-1-1--1--1----------3-3-3--3-3-3-----------1-1-1--1--1------------------------|
A|--3---3--3------------------------------------3---3--3------------------------------------|
E|-----------------------3---3--3------------------------------------3---3--3--1-1-1--1-1-1-|

G|-----------------------------------------------------------------------------------(7)x9--|
D|-----------1-1-1--1--1----------3-3-3--3-3-3-----------1-1-1--1--1-0-0-0-0-0-0-0-0--------|
A|--3---3--3------------------------------------3---3--3------------------------------------|
E|-----------------------3---3--3-----------------------------------------------------------|

Solo
G|--------------------------------------------------------0---|
D|----------------3-3-3------------------3-3-3-3--------3-----|
A|----------------------3-3-3--3-3-3-1-1---------3-3--3-------|
E|--8-8-8-6-6-6-6---------------------------------------------|

G|--------------------------------0----------------------|
D|------------------3-3-3-3---1-----3-1-3----------------|
A|--3-3-3-3-1-1-1-1---------3---3---------3--3-3-3-1-1-1-|
E|-------------------------------------------------------|

G|-------------------------|
D|--3-3-3--3-3-3-3--3-3-3--|
A|-------------------------|
E|-------------------------|

G|------------------------------------------------------------------------------------------|
D|-----------1-1-1--1--1----------3-3-3--3-3-3-----------1-1-1--1--1------------------------|
A|--3---3--3------------------------------------3---3--3------------------------------------|
E|-----------------------3---3--3------------------------------------3---3--3--1-1-1--1-1-1-|

G|-----------------------------------------------------------------------------------(7)x5--|
D|-----------1-1-1--1--1----------3-3-3--3-3-3-----------1-1-1--1--1-0-0-0-0-0-0-0-0--------|
A|--3---3--3------------------------------------3---3--3------------------------------------|
E|-----------------------3---3--3-----------------------------------------------------------|

quando tocar o sete pele ultima vez segure-o até o fim da musica
ouça a musica para saber o tempo certo de cada nota.

Clipes

Cifra Club Pro

Aproveite o Cifra Club com benefícios exclusivos e sem anúncios
7 dias grátis
Cifra Club Pro
Aproveite o Cifra Club com benefícios exclusivos e sem anúncios
7 dias grátis