busca

She's Only 18

Red Hot Chili Peppers

Introdução 
G|--------3-----------3-----5--------3-----------3--------|
D|----3-------5---3-------5------3-------5---3-------5-3--|
A|--5---5---5---5---5---5------5---5---5---5---5---5------|
E|--------------------------------------------------------| x2

Verso 
G|--------3-----------3-----5--------3-----------3--------|
D|----3-------5---3-------5------3-------5---3-------5-3--|
A|--5---5---5---5---5---5------5---5---5---5---5---5------|
E|--------------------------------------------------------| x4

Refrão
G|--------------------------------------------------|
D|--------------------------------------------------|
A|--3—-3-—3-3/6-6-6--6-6-6----------5/8-8-8--8-8-8--|
E|-------------------------0-3—-3--3----------------| 

G|--------------------------------------------------|
D|--------------------------------------------------|
A|--3—-3-—3-3/6-6-6--6-6-6--------------------------|
E|-------------------------0-3—-3--3-1-1-1--1-1-1---| 

G|--------------------------------------------------|
D|--------------------------------------------------|
A|--3—-3-—3-3/6-6-6--6-6-6----------5/8-8-8--8-8-8--|
E|-------------------------0-3—-3--3----------------| 

G|-----------------------------------------7-7-7-7-7-7-7-7--|
D|----------------------------------------------------------|
A|--3—-3-—3-3/6-6-6--6-6-6-5-5-5-5-5-5-5-5------------------|
E|----------------------------------------------------------| 

Introdução 2
G|--------3-----------3-----5--------3-----------3--------|
D|----3-------5---3-------5------3-------5---3-------5-3--|
A|--5---5---5---5---5---5------5---5---5---5---5---5------|
E|--------------------------------------------------------| x1

Verso 2
G|--------3-----------3-----5--------3-----------3--------|
D|----3-------5---3-------5------3-------5---3-------5-3--|
A|--5---5---5---5---5---5------5---5---5---5---5---5------|
E|--------------------------------------------------------| x4

Refrão 2
G|--------------------------------------------------|
D|--------------------------------------------------|
A|--3—-3-—3-3/6-6-6--6-6-6----------5/8-8-8--8-8-8--|
E|-------------------------0-3—-3--3----------------| 

G|--------------------------------------------------|
D|--------------------------------------------------|
A|--3—-3-—3-3/6-6-6--6-6-6--------------------------|
E|-------------------------0-3—-3--3-1-1-1--1-1-1---| 

G|--------------------------------------------------|
D|--------------------------------------------------|
A|--3—-3-—3-3/6-6-6--6-6-6----------5/8-8-8--8-8-8--|
E|-------------------------0-3—-3--3----------------| 

G|-----------------------------------------7-7-7-7-7-7-7-7--|
D|----------------------------------------------------------|
A|--3—-3-—3-3/6-6-6--6-6-6-5-5-5-5-5-5-5-5------------------|
E|----------------------------------------------------------| 

Solo
G|--------------------------------------------|
D|--------------------3—-3--3-----------------|
A|--3—-3--3-1-1-1-1-1---------3-3-3-3---0-1---|
E|------------------------------------3-------|

G|--------------------------------------------|
D|------------------3—-3-5-3------------------|
A|--3—-3--3-1-1-1-1---------3-3-3-3---0-1-----|
E|------------------------------------3-------|

G|-------------------------------3---5--------|
D|--------------------3—-3-----5---5---5-3-2--|
A|--3—-3--3-3-1-1-1--x------3-----------------|
E|--------------------------------------------|

G|--------------------------------------------|
D|--------------------3—-3—-3-3-3-3-3-3-3-3-3-|
A|--3—-3—-3-3-1-1-1--3------------------------|
E|--------------------------------------------|

Refrão 3
G|--------------------------------------------------|
D|--------------------------------------------------|
A|--3—-3-—3-3/6-6-6--6-6-6----------5/8-8-8--8-8-8--|
E|-------------------------0-3—-3--3----------------| 

G|--------------------------------------------------|
D|--------------------------------------------------|
A|--3—-3-—3-3/6-6-6--6-6-6--------------------------|
E|-------------------------0-3—-3--3-1-1-1--1-1-1---| 

G|--------------------------------------------------|
D|--------------------------------------------------|
A|--3—-3-—3-3/6-6-6--6-6-6----------5/8-8-8--8-8-8--|
E|-------------------------0-3—-3--3----------------| 

G|-----------------------------------------7-7-7-7--|
D|--------------------------------------------------|
A|--3—-3-—3-3/6-6-6--6-6-6-5-5-5-5-5-5-5-5--------5-|
E|--------------------------------------------------|

Clipes