Show Me Your Soul

Red Hot Chili Peppers

Tom: G
A batida desta musica é bem Funk, com chorus e wah wah

Aqui estão as partes principais do som, é só ouvir a musica ver as sequencias e repeticões
Bom som galera !!!

Introdução:

#1t1##1t2#e|------------------------------|--12------------15------------|
B|--10--------------------------|--13------------15------------|
G|--10--------------------------|------------------------------|
D|--10--------------------------|------------------------------|
A|------------------------------|------------------------------|
E|------------------------------|------------------------------|#/1t2##/1t1#


#2t1##2t2#e|--15--x-14--x-15--x-14--x-12-14--x--|--15--x-14--x-15--x-14--x-12--x-x--|
B|--13--x-13--x-13--x-13--x-13-13--x--|--13--x-13--x-13--x-13--x-13--x-x--|
G|--12--x-12--x-12--x-12--x-12-12--x--|--12--x-12--x-12--x-12--x-12--x-x--|
D|------------------------------------|-----------------------------------|
A|------------------------------------|-----------------------------------|
E|------------------------------------|-----------------------------------|#/2t2##/2t1#


#3t1##3t2#e|--15--x-14--x-15--x-14--x-12-14--x--|--15--x-14--x-15--x-14--x-12--x-x--|
B|--13--x-13--x-13--x-13--x-13-13--x--|--13--x-13--x-13--x-13--x-13--x-x--|
G|--12--x-12--x-12--x-12--x-12-12--x--|--12--x-12--x-12--x-12--x-12--x-x--|
D|------------------------------------|-----------------------------------|
A|------------------------------------|-----------------------------------|
E|------------------------------------|-----------------------------------|#/3t2##/3t1#


#4t1##4t2#e|--15--x-14--x-15--x-14--x-12-14--x--|--15--x-14--x-15--x-14--x-12--x-x--|
B|--13--x-13--x-13--x-13--x-13-13--x--|--13--x-13--x-13--x-13--x-13--x-x--|
G|--12--x-12--x-12--x-12--x-12-12--x--|--12--x-12--x-12--x-12--x-12--x-x--|
D|------------------------------------|-----------------------------------|
A|------------------------------------|-----------------------------------|
E|------------------------------------|-----------------------------------|#/4t2##/4t1#


#5t1##5t2#e|--15--x-14--x-15--x-14--x-12-14--x--|--15--x-14--x-20-20-20-20-20-20-20-20--x--|
B|--13--x-13--x-13--x-13--x-13-13--x--|--13--x-13--x-19-19-19-19-19-19-19-19--x--|
G|--12--x-12--x-12--x-12--x-12-12--x--|--12--x-12--x-19-19-19-19-19-19-19-19--x--|
D|------------------------------------|------------------------------------------|
A|------------------------------------|------------------------------------------|
E|------------------------------------|------------------------------------------|#/5t2##/5t1#



Verso:


#6t1##6t2#e|--15--x-14--x-15--x-14--x-12-14--x--|--15--x-14--x-15--x-14--x-12--x-x--|
B|--13--x-13--x-13--x-13--x-13-13--x--|--13--x-13--x-13--x-13--x-13--x-x--|
G|--12--x-12--x-12--x-12--x-12-12--x--|--12--x-12--x-12--x-12--x-12--x-x--|
D|------------------------------------|-----------------------------------|
A|------------------------------------|-----------------------------------|
E|------------------------------------|-----------------------------------|#/6t2##/6t1#


#7t1##7t2#e|--15--x-14--x-15--x-14--x-12-14--x--|--15--x-14--x-20-20-20-20-20-20-20-20--x--|
B|--13--x-13--x-13--x-13--x-13-13--x--|--13--x-13--x-19-19-19-19-19-19-19-19--x--|
G|--12--x-12--x-12--x-12--x-12-12--x--|--12--x-12--x-19-19-19-19-19-19-19-19--x--|
D|------------------------------------|------------------------------------------|
A|------------------------------------|------------------------------------------|
E|------------------------------------|------------------------------------------|#/7t2##/7t1#

Pré-refrão:


#8t1##8t2#e|------5----------------5--5--|------5--------x-x-x-8--8--|
B|------5----------------5--5--|------5--------x-x-x-7--7--|
G|------5----------------5--5--|------5--------x-x-x-7--7--|
D|-----------------------------|---------------------------|
A|-----------------------------|---------------------------|
E|-----------------------------|---------------------------|#/8t2##/8t1#


#9t1##9t2#e|------5----------------5--5--|------5--------x-x-x-8--8--|
B|------5----------------5--5--|------5--------x-x-x-7--7--|
G|------5----------------5--5--|------5--------x-x-x-7--7--|
D|-----------------------------|---------------------------|
A|-----------------------------|---------------------------|
E|-----------------------------|---------------------------|#/9t2##/9t1#


#10t1##10t2#e|------5----------------5--5--|------5--------x-x-x-8--8--|
B|------5----------------5--5--|------5--------x-x-x-7--7--|
G|------5----------------5--5--|------5--------x-x-x-7--7--|
D|-----------------------------|---------------------------|
A|-----------------------------|---------------------------|
E|-----------------------------|---------------------------|#/10t2##/10t1#


#11t1##11t2#e|------5----------------5--5--|------5--------x-x-x-8--8--|
B|------5----------------5--5--|------5--------x-x-x-7--7--|
G|------5----------------5--5--|------5--------x-x-x-7--7--|
D|-----------------------------|---------------------------|
A|-----------------------------|---------------------------|
E|-----------------------------|---------------------------|#/11t2##/11t1#


Refrão:

Esta é a parte do "Sentimental Gentleman..."

#12t1##12t2#e|--------------------------|-------8----x-8/10---------|
B|-------6----x-6/8---------|-------8----x-8/10---------|
G|-------5----x-5/7---------|---------------------------|
D|--------------------------|--7-------------------7----|
A|--5------------------5----|---------------------------|
E|--------------------------|---------------------------|#/12t2##/12t1#


#13t1##13t2#e|--------------------------|-------8----x-8/10---------|
B|-------6----x-6/8---------|-------8----x-8/10---------|
G|-------5----x-5/7---------|---------------------------|
D|--------------------------|--7-------------------7----|
A|--5------------------5----|---------------------------|
E|--------------------------|---------------------------|#/13t2##/13t1#


#14t1##14t2#e|--------------------------|-------8----x-8/10---------|
B|-------6----x-6/8---------|-------8----x-8/10---------|
G|-------5----x-5/7---------|---------------------------|
D|--------------------------|--7-------------------7----|
A|--5------------------5----|---------------------------|
E|--------------------------|---------------------------|#/14t2##/14t1#


#15t1##15t2#e|------------------------------|--17------------20------------|
B|--15--------------------------|--18------------20------------|
G|--15--------------------------|------------------------------|
D|--15--------------------------|------------------------------|
A|------------------------------|------------------------------|
E|------------------------------|------------------------------|#/15t2##/15t1#


Outro:


#16t1##16t2#e|--10-10--------10-10--------|--10-10--------10-10--------|
B|--10-10--------10-10--------|--10-10--------10-10--------|
G|--10-10--------10-10--------|--10-10--------10-10--------|
D|----------------------------|----------------------------|
A|----------------------------|----------------------------|
E|----------------------------|----------------------------|#/16t2##/16t1#


#17t1##17t2#e|--10-10--------10-10--------|--10-10--------10-10--------|
B|--10-10--------10-10--------|--10-10--------10-10--------|
G|--10-10--------10-10--------|--10-10--------10-10--------|
D|----------------------------|----------------------------|
A|----------------------------|----------------------------|
E|----------------------------|----------------------------|#/17t2##/17t1#


#18t1##18t2#e|--10-10--------10-10--------|--10-10--------10-10--------|
B|--10-10--------10-10--------|--10-10--------10-10--------|
G|--10-10--------10-10--------|--10-10--------10-10--------|
D|----------------------------|----------------------------|
A|----------------------------|----------------------------|
E|----------------------------|----------------------------|#/18t2##/18t1#


#19t1##19t2#e|--10-10--------10-10--------|--10-10-10-10-10-10-10-10-10-10-10-10-10-10-10-10--|
B|--10-10--------10-10--------|--10-10-10-10-10-10-10-10-10-10-10-10-10-10-10-10--|
G|--10-10--------10-10--------|--10-10-10-10-10-10-10-10-10-10-10-10-10-10-10-10--|
D|----------------------------|---------------------------------------------------|
A|----------------------------|---------------------------------------------------|
E|----------------------------|---------------------------------------------------|#/19t2##/19t1#


#20t1##20t2#e|------------------------------|---------------------------------|
B|------------------------------|---------------------------------|
G|------------------------------|---------------------------------|
D|------------------------------|---------------------------------|
A|--7-7-5-7--4--5-----)---------|--7-7-5-7--4--5-----------5------|
E|-------------------3h----5----|-------------------3--5/7---7----|#/20t2##/20t1#


#21t1##21t2#e|------------------------------|---------------------------------|
B|------------------------------|---------------------------------|
G|------------------------------|---------------------------------|
D|------------------------------|---------------------------------|
A|--7-7-5-7--4--5-----)---------|--7-7-5-7--4--5-----------5------|
E|-------------------3h----5----|-------------------3--5/7---7----|#/21t2##/21t1#


#22t1##22t2#e|------------------------------|---------------------------------|
B|------------------------------|---------------------------------|
G|------------------------------|---------------------------------|
D|------------------------------|---------------------------------|
A|--7-7-5-7--4--5-----)---------|--7-7-5-7--4--5-----------5------|
E|-------------------3h----5----|-------------------3--5/7---7----|#/22t2##/22t1#


#23t1##23t2#e|------------------------------|-----------------------------|
B|------------------------------|-----------------------------|
G|------------------------------|-----------------------------|
D|------------------------------|-----------------------------|
A|--7-7-5-7--4--5-----)---------|---5----5--6--7--------------|
E|-------------------3h----5----|-----------------------x\----|#/23t2##/23t1#


Solo:


#24t1##24t2#e|------------------------------------------|------------------------------------------|
B|--15--------------------------------------|--15--------------------------------------|
G|--------12--------------------------------|--------12--------------------------------|
D|--------------14/16----16-16-16-16-16-16--|--------------14/16----16-16-16-16-16-16--|
A|------------------------------------------|------------------------------------------|
E|------------------------------------------|------------------------------------------|#/24t2##/24t1#


#25t1##25t2#e|--------------------------------|----------------------------|
B|--------------------------------|------------15--------------|
G|--14------------------14--------|------------------14--------|
D|------------16------------------|--16------------------------|
A|--------------------------------|----------------------------|
E|--------------------------------|----------------------------|#/25t2##/25t1#

       
#26t1##26t2#e|--17b--------17b---17b---17b----|------17b------------17b-------------|
B|--------------------------------|-------------------------------------|
G|--------------------------------|-------------------------------------|
D|--------------------------------|-------------------------------------|
A|--------------------------------|-------------------------------------|
E|--------------------------------|-------------------------------------|#/26t2##/26t1#

                                      
#27t1##27t2#e|--17------------17b-------------|--15b-----------------------------|
B|--------------------------------|-----------------x-x-x-x-x-x-x-x--|
G|--------------------------------|-----------------x-x-x-x-x-x-x-x--|
D|--------------------------------|----------------------------------|
A|--------------------------------|----------------------------------|
E|--------------------------------|----------------------------------|#/27t2##/27t1#


#28t1##28t2#e|---------------------------------|--------------------------------|
B|---------------------------------|--------------------------------|
G|---------------------------------|--------------------------------|
D|--7b-----5--7h5-------------2----|--7b----5--7h5-------------2----|
A|----------------7b---------------|---------------7\---------------|
E|----------------------3b---------|---------------------3b---------|#/28t2##/28t1#


#29t1##29t2#e|--------------------------------------------|-------------------------------------|
B|--------------------------------------------|-------------------------------------|
G|--------------------------------------------|---------------------------6b--------|
D|--7b-----5--7h5----5h7p5h7p5h7p5h7p5h7p5h7--|--5h7p5h7p5h7p5h7p5h7p5h7------------|
A|----------------7---------------------------|-------------------------------------|
E|--------------------------------------------|-------------------------------------|#/29t2##/29t1#


#30t1##30t2#e|---------------------------------|---------------------------------|
B|---------------------------------|----------------x-x-x-x-x-x-x-x--|
G|------7b--------6h7----6b--------|----------------x-x-x-x-x-x-x-x--|
D|---------------------------------|----------------x-x-x-x-x-x-x-x--|
A|---------------------------------|---------------------------------|
E|---------------------------------|---------------------------------|#/30t2##/30t1#

#31t1#                                                          Tremolo Pick
#31t2#e|------------------------------------|---------------------------|
B|------------------------------------|---------------------------|
G|--14b-----------12h14----12b--------|--(12)------------12--12\--|
D|------------------------------------|---------------------------|
A|------------------------------------|---------------------------|
E|------------------------------------|---------------------------|#/31t2##/31t1#
    
#32t1##32t2#e|------------------------|--------------------------|
B|--15--------------------|--15----------------------|
G|---x--------------------|---x----------------------|
D|--12--------------------|--12----------------------|
A|------------------------|--------------------------|
E|------------------------|--------------------------|#/32t2##/32t1#
Obs.: Cavalgada nestas notas

#33t1##33t2#e|------------------|------------------------|
B|--17--15--12--10--|--8--10--12--12\--------|
G|---x---x---x---x--|--x---x---x---x---------|
D|--14--12---9---7--|--5---7---9---9\--------|
A|------------------|------------------------|
E|------------------|------------------------|#/33t2##/33t1#
Obs.: Cavalgada nestas notas

#34t1##34t2#e|-----------------------------|----------------------------------|
B|-----------------------------|----------------------------------|
G|-----------------------------|----------------------------------|
D|--7b------------7b----5-7h5--|--7b--------7b--------------------|
A|-----------------------------|----------------------------------|
E|-----------------------------|----------------------------------|#/34t2##/34t1#

FIM........................................................................
Composição: Anthony,Flea,John e ChadColaboração e revisão: Eloy Nogueira