busca

Sir Psycho Sexy

Red Hot Chili Peppers

Tom: D#
Introdução e verso 1 :

Com wah wah

E|-x-------------------------x-x-x-------------!
B|-x-----x-------------------x-x-x-------------!
G|-----x-x---------------x-x-x-x-x-------------!
D|-----x---x-5-5-5-----x------------x-x--------!
A|---x----------------------------------5-7~---!
E|---x-----------------------------------------!

E|-----------x-x-x----------------------x-x-x--------------------------!
B|-----------x-x-x----------------------x-x-x--------------------------!
G|------x-x--x-x-x------------------x-x-x-x-x--------------------------!
D|--x-x------------x-x-5-5-5b6---x-x-----------x-x-x-------------------!
A|---------------------------------------------------5-4h5p4h5p4h5p4h5-!
E|---------------------------------------------------------------------!

E|-x-------------------------x-x-x-------------!
B|-x-----x-------------------x-x-x-------------!
G|-----x-x---------------x-x-x-x-x-------------!
D|-----x---x-5-5-5-----x------------x-x--------!
A|---x----------------------------------5-7~~--!
E|---x-----------------------------------------!

E|-x-------------------------x-x-x--------------!
B|-x-----x-------------------x-x-x--------------!
G|-----x-x---------------x-x-x-x-x--------------!
D|-----x---x-5-5-5-----x------------x-x---------!
A|---x----------------------------------5-5-5-5-!
E|---x------------------------------------------!


Verso 2 :

E|-7-7--7----7-7---7-7--7--7-7------!
B|-7-7--7----7-7---7-7--7--7-7---9--!
G|-7-7--7----7-7---7-7--7--7-7---9--!
D|-7-7--7--x-7-7---7-7--7--7-7---9--!
A|----------------------------------!
E|----------------------------------!


E|-7-7--7----7-7---7-7--7--7-7-----!
B|-7-7--7----7-7---7-7--7--7-7-----!
G|-7-7--7----7-7---7-7--7--7-7-----!
D|-7-7--7--x-7-7---7-7--7--7-7-----!
A|---------------------------------!
E|---------------------------------!


Repete o verso, com as variações:


E|-7-7--7----7-7---7-7--7--7------!
B|-7-7--7----7-7---7-7--7--7------!
G|-7-7--7----7-7---7-7--7--7------!
D|-7-7--7--x-7-7---7-7--7--7------!
A|---------------------------5----!
E|--------------------------------!

E|-7-7--7----7-7---7-7--7--7----------!
B|-7-7--7----7-7---7-7--7--7----------!
G|-7-7--7----7-7---7-7--7--7----------!
D|-7-7--7--x-7-7---7-7--7--7----------!
A|---------------------------5-5-5-5--!
E|------------------------------------!


Refrão :

E|-------------------------------------------!
B|----11----------------------------------x\-!
G|-x--10b12---10-12----3-3----x-x--5-4-3--x\-!
D|-------------------------------------------!
A|-------------------------------------------!
E|-------------------------------------------!

Variações :

E|--------------------------------------------!
B|---11---------------------------------------!
G|---10b12---10-12b----3b-------x-x--5-4-3\---!
D|--------------------------------------------!
A|--------------------------------------------!
E|--------------------------------------------!

E|-------------------------------------------------!
B|----11b12----------------------------------------!
G|-x--10b12---10-12----3--x-x-x-x-x-x-x-x--5-4-3---!
D|-------------------------------------------------!
A|-------------------------------------------------!
E|-------------------------------------------------!

E|----------------------------!
B|----11----------------------!
G|----10b12---10-12----3------!
D|----------------------------!
A|----------------------------!
E|----------------------------!


Repete o verso 2


Repete o refrão


Interlúdio :

E|-----------------------------------------!
B|-5---7---8-----------8-8--7-7--5---------!
G|-5---7---7-----------7-7--7-7--5--x-5----!
D|-5---7---9---x-5-7---9-9--7-7--5------7--!
A|---------7-----------7-7-----------------!
E|-5---7--------------------7-7--5---------!

E|------------------------------------------!
B|-5---7---8-----------8-8--7-7--5----------!
G|-5---7---7-----------7-7--7-7--5--7b9-5---!
D|-5---7---9---x-5-7---9-9--7-7--5----------!
A|---------7-----------7-7------------------!
E|-5---7--------------------7-7--5----------!


E|---------------------=-------------------!
B|-5---7---8-----------8-8--7-7--5---------!
G|-5---7---7-----------7-7--7-7--5--x-5----!
D|-5---7---9---x-5-7---9-9--7-7--5------7--!
A|---------7-----------7-7-----------------!
E|-5---7--------------------7-7--5---------!

E|---------------------=-----------x-5--x-6---!
B|-5---7---8-----------8-8--7-7----x-5--x-6---!
G|-5---7---7-----------7-7--7-7----x-5--x-6---!
D|-5---7---9---x-5-7---9-9--7-7---------------!
A|---------7-----------7-7--------------------!
E|-5---7--------------------7-7---------------!


Toque a primeira parte da música


Toque isto no final do verso:


E|----!
B|----!
G|-6--!
D|-5--!
A|-7--!
E|-5--!


Ponte (toque esta parte batendo o dedo indicador sobre as notas):


E|---------7--------------------!
B|---------8--------------7-----!
G|-------7----------------8-----!  3x
D|-----9----------------7-------!
A|-7------------------9---------!
E|----------------7-------------!

E|-------------------------------------!
B|-------------------------------------!
G|--6-6-6-6-6-6-6-6--8-8-8-8-----------!
D|--5-5-5-5-5-5-5-5--7-7-7-7-----------!
A|--7-7-7-7-7-7-7-7--9-9-9-9-----------!
E|--5-5-5-5-5-5-5-5--7-7-7-7-----------!

E|---------7--------------------!
B|---------8--------------7-----!
G|-------7----------------8-----!  3x
D|-----9----------------7-------!
A|-7------------------9---------!
E|----------------7-------------!

E|------------------------!
B|-8---8------8----7------!
G|-9-----9-9-------8------!
D|-9---------------7------!
A|------------------------!
E|-8----------------------!


Repete o verso 2


Outro :

     Em                           Eb
E|--------------------------------------------------!
B|-8--8---8--8-8--8-8-8--8------8-8-8--------8------!
G|-9--9---9--9-9--9-9-9--8----8-8-8-8--------8------!
D|-9--9---9--9-9--9-9-9--8--8---8-8-8--------8------!
A|-7--7---7--7-7--7-7-7--6------6-6-6-6-8/10---10\8-!
E|--------------------------------------------------!

         Bb                    D
E|----6--6-6--------------------------------------!
B|----6--6-6---------------------7-------7--------!
G|----7--7-7---------------------7-7-----7--------!
D|----8--8-8---------8---------7-7-------7--------!
A|----8--8-8---------8-------5---5---7/9---9\7-5--!
E|-6--6--6-6--6-8/10---10\8-----------------------!

        G#              Eb    Cm
E|----4--------------------------------------------------!
B|----4-----------------8-----4-------8------------------!
G|----5-----------------8--------5----8b10r8-------------!
D|----6--------8--------8----------5--8-------10-10---10-!
A|----6--------8-----6-----3-----------------------------!
E|-4--4--4-6/8---8\6-------------------------------------!

      G#                      G
E|----4---------------------3--3--3--3--3--3--3--------!
B|----4-----4--------4b6-4--3--3--3--3--3--3--3--x-----!
G|----5--------5-----5---5--4--4--4--4--4--4--4--x-----!
D|----6--6--------6--6---6--5--5--5--5--5--5--5--x-----!
A|----6---------------------5--5--5--5--5--5--5--x--7--!
E|-4--4---------------------3--3--3--3--3--3--3--------!

E continue variando, oitavando algumas notas e improvisando frases sobre os acordes nesta última parte da música

Clipes