busca

Slow Cheetah

Red Hot Chili Peppers

Tom: C#
(intro)

   A#m          C#5          D#m          F#
E|------------|------------|------------|-----------|
B|--------2---|------------|-------6----|-------11--|
G|----3-------|---------6--|---8--------|-----------|
D|------------|----6-------|------------|---11------| (4x)
A|-1----1----1|-4----4----4|-6---6----6-|-9----9---9|
E|------------|------------|------------|-----------|

   A#m        C#         D#sus2     F#
E|-6--8--6--|-4--4-----|-6--------|-9---------|
B|-6--------|-4-----6--|-6--------|-11--------|
G|-6--------|-6--------|-8--8--6--|-11--------|
D|-8--------|-6--------|-8--------|-11--8-----|
A|-8--------|-4--------|-6--------|-9------11-|
E|-6--------|----------|----------|-----------|

   A#m        C#         D#sus2     F#
E|-6--8--6--|-4--4-----|-6--------|-9---------|
B|-6--------|-4-----6--|-6--------|-11--------|
G|-6--------|-6--------|-8--8--6--|-11-----6--|
D|-8--------|-6--------|-8--------|-11--8-----|
A|-8--------|-4--------|-6--------|-9---------|
E|-6--------|----------|----------|-----------|

( D#sus2 após o C# para entrar no refrão)

     D#sus2
E|---6----|
B|---6----|
G|---8----|
D|---8----|
A|---6----|
E|--------|

(refrão)
     F#       C#      D#m      D#m
E|---2----|---4----|---6----|---6----|
B|---2----|---6----|---7----|---7----|
G|---3----|---6----|---8----|---8----|
D|---4----|---6----|---8----|---8----|
A|---4----|---4----|---6----|---6----|
E|---2----|--------|--------|--------|

     F#       C#     D#sus2   D#sus2
E|---2----|---4----|---6----|---6----|
B|---2----|---6----|---6----|---6----|
G|---3----|---6----|---8----|---8----|
D|---4----|---6----|---8----|---8----|
A|---4----|---4----|---6----|---6----|
E|---2----|--------|--------|--------|

     C#      D#m
E|---4----|---6----|
B|---6----|---7----|
G|---6----|---8----|
D|---6----|---8----| (4x)
A|---4----|---6----|
E|--------|--------|

(volta para o refrão)

(ultimo refrão)

(solo)
E|-----6--------------------------------------------------------------------------------|
B|-------------------------9-11-------------------------------------------9-11----------|
G|8b10--10b8-8-6-8-6~--6/8------10b8-6-8-8~------6-8-10b8-6---8-6-6~--6/8-----10b8-6-8~-|
D|-------------------------------------------6h8------------8---------------------------|
A|--------------------------------------------------------------------------------------|
E|--------------------------------------------------------------------------------------|

E|---------------------------------------------------------------------------------------------|
B|-------------------------------9-11-------------------------------------------9-11-----------|
G|----6h8-6h8-10b8-6-8-6-6~--6/8------10b8-6-8-8~------6-8-10b8-6-8-6-6~--6/8--------10b8-6-8~-|
D|6h8----------------------------------------------6h8-----------------------------------------|
A|---------------------------------------------------------------------------------------------|
E|---------------------------------------------------------------------------------------------|

Clipes

Cifra Club Pro

Aproveite o Cifra Club com benefícios exclusivos e sem anúncios
7 dias grátis
Cifra Club Pro
Aproveite o Cifra Club com benefícios exclusivos e sem anúncios
7 dias grátis