B
234
X24442
C#5
134
X466XX
E
123
022100
F#
234
244322
G#m
34
466444
Tom: G
[Intro] G#m  E  B  F#
        G#m  E  B  F#
        G#m  E  B  F#
        G#m  E  B  F#

#1t1#    G#m               E
#1t2#E|-----------------------------------------|
B|-----------------------------------------|
G|-----4---4h6p4---4-----4---4h6p4---4-----|
D|---6---6-------6-----6---6-------6-------|
A|-6-----------------7---------------------|
E|-----------------------------------------|#/1t2##/1t1#

#2t1#    B                  F#
#2t2#E|-----------------------------------------|
B|-----------------------------------------|
G|-------------------------6---6h8p6---6---|
D|-----4---4h6p4---4-----8---8-------8-----|
A|---6---6-------6---7/9-------------------|
E|-7---------------------------------------|#/2t2##/2t1#

#3t1#    G#m               E
#3t2#E|-----------------------------------------|
B|-----------------------------------------|
G|-----4---4h6p4---4-----4---4h6p4---4-----|
D|---6---6-------6-----6---6-------6-------|
A|-6-----------------7---------------------|
E|-----------------------------------------|#/3t2##/3t1#

#4t1#    B                 F#
#4t2#E|-----------------------------------------|
B|-----------------------------------------|
G|-----------------------------------------|
D|-----4---4h6p4---4-----4---4h6p4---4-----|
A|---6---6-------6-----4---4-------6-------|
E|-7-----------------6---------------------|#/4t2##/4t1#

[Primeira Parte]

 G#m                      E
Come to decide that the things that I tried
 B                    F#
Were in my life just to get high on

G#m                   E
    When I sit alone come get a little more known
 B                      F#
But I need more than myself this time

  G#m                      E
Step from the road to the sea to the sky
       B               F#
And I do believe what we rely on

G#m                   E
    When I lay it on come get to play it on
B               F#
All my life to sacrifice

[Refrão]

 G#m   E  B
Hey  oh
         F#    G#m  E  B  F#
Listen what I say   oh
            G#m    E  B
I got your Hey  oh
             F#    G#m  E  B  F#
Now listen what I say   oh

[Primeira Parte]

  G#m                    E
When will I know that I really can't go
        B                  F#
To the well one more time to decide on

G#m                         E
    When it's killing me, when will I really see
B                   F#
All that I need to look inside

 G#m                    E
Come to believe that I better not leave
   B              F#
Before I get my chance to ride

G#m                         E
    When it's killing me, what do I really need
B                   F#
All that I need to look inside

[Refrão]

 G#m   E  B
Hey  oh
         F#    G#m  E  B  F#
Listen what I say   oh
               G#m    E  B
Come back and Hey  oh
          F#    G#m  E  B  F#
Look at what I say   oh

[Ponte]

#5t1#    E
#5t2#E|-4-4-4-4-4-4-4-4-4-4-4-4-4-4-4-4-------------------|
B|-5-5-5-5-5-5-5-5-5-5-5-5-5-5-5-5-------------------|
G|---------------------------------------------------|
D|---------------------------------------------------|
A|---------------------------------------------------|
E|---------------------------------------------------|#/5t2##/5t1#

#6t1#                            F#
#6t2#E|-4-4-4-4-4-4-4-4-4-4-4-4-6-6-6-6-------------------|
B|-5-5-5-5-5-5-5-5-5-5-5-5-7-7-7-7-------------------|
G|---------------------------------------------------|
D|---------------------------------------------------|
A|---------------------------------------------------|
E|---------------------------------------------------|#/6t2##/6t1#

#7t1#    G#m
#7t2#E|-7-7-7-7-7-7-7-7-7-7-7-7-7-7-7-7-------------------|
B|-9-9-9-9-9-9-9-9-9-9-9-9-9-9-9-9-------------------|
G|---------------------------------------------------|
D|---------------------------------------------------|
A|---------------------------------------------------|
E|---------------------------------------------------|#/7t2##/7t1#

#8t1#                              F#
#8t2#E|-7-7-7-7-7-7-7-7-11-11-9-9-7-7-9-9-----------------|
B|-9-9-9-9-9-9-9-9-9--9--9-9-9-9-9-9-----------------|
G|---------------------------------------------------|
D|---------------------------------------------------|
A|---------------------------------------------------|
E|---------------------------------------------------|#/8t2##/8t1#

#9t1#    E
#9t2#E|-4-4-4-4-4-4-4-4-4-4-4-4-4-4-4-4-------------------|
B|-5-5-5-5-5-5-5-5-5-5-5-5-5-5-5-5-------------------|
G|---------------------------------------------------|
D|---------------------------------------------------|
A|---------------------------------------------------|
E|---------------------------------------------------|#/9t2##/9t1#

#10t1##10t2#E|-4-4-4-4-4-4-4-4-4-4-4-4-4-4-4-4-------------------|
B|-5-5-5-5-5-5-5-5-5-5-5-5-5-5-5-5-------------------|
G|---------------------------------------------------|
D|---------------------------------------------------|
A|---------------------------------------------------|
E|---------------------------------------------------|#/10t2##/10t1#

     E
The more I see the less I know
                           F#  G#m   F#  E
The more I like to let it go  hey oh

[Refrão]

 B                          F#
Deep beneath the cover of another perfect wonder
            C#5
Where it's so white as snow
  B                     F#
Privately divided by a world so undecided
             C#5
And there's nowhere to go
B                         F#
In between the cover of another perfect wonder
            C#5
Where it's so white as snow
 B                                       F#
Running through the field where all my tracks will
                          C#5
Be concealed and there's nowhere to go oh!

( G#m  E  B  F# )
( G#m  E  B  F# )

[Segunda Parte]

  G#m                E
When to descend to amend for a friend
          B                  F#
All the channels that have broken down

G#m                      E
    Now you bring it up, I'm gonna ring it up
 B                F#
Just to hear you sing it out

  G#m                      E
Step from the road to the sea to the sky
       B               F#
And I do believe what we rely on

G#m                    E
    When I lay it on, come get to play it on
B               F#
All my life to sacrifice

[Refrão]

 G#m   E  B
Hey  oh
         F#    G#m  E  B  F#
Listen what I say   oh
            G#m    E  B
I got your Hey  oh
         F#    G#m  E  B  F#
Listen what I say   oh

[Ponte]

#11t1#    E
#11t2#E|-4-4-4-4-4-4-4-4-4-4-4-4-4-4-4-4-------------------|
B|-5-5-5-5-5-5-5-5-5-5-5-5-5-5-5-5-------------------|
G|---------------------------------------------------|
D|---------------------------------------------------|
A|---------------------------------------------------|
E|---------------------------------------------------|#/11t2##/11t1#

#12t1#                            F#
#12t2#E|-4-4-4-4-4-4-4-4-4-4-4-4-6-6-6-6-------------------|
B|-5-5-5-5-5-5-5-5-5-5-5-5-7-7-7-7-------------------|
G|---------------------------------------------------|
D|---------------------------------------------------|
A|---------------------------------------------------|
E|---------------------------------------------------|#/12t2##/12t1#

#13t1#    G#m
#13t2#E|-7-7-7-7-7-7-7-7-7-7-7-7-7-7-7-7-------------------|
B|-9-9-9-9-9-9-9-9-9-9-9-9-9-9-9-9-------------------|
G|---------------------------------------------------|
D|---------------------------------------------------|
A|---------------------------------------------------|
E|---------------------------------------------------|#/13t2##/13t1#

#14t1#                            F#
#14t2#E|-7-7-7-7-7-7-7-7-6-6-6-6-6-6-6-6-------------------|
B|-9-9-9-9-9-9-9-9-7-7-7-7-7-7-7-7-------------------|
G|---------------------------------------------------|
D|---------------------------------------------------|
A|---------------------------------------------------|
E|---------------------------------------------------|#/14t2##/14t1#

#15t1#    E
#15t2#E|-4-4-4-4-4-4-4-4-4-4-4-4-4-4-4-4-------------------|
B|-5-5-5-5-5-5-5-5-5-5-5-5-5-5-5-5-------------------|
G|---------------------------------------------------|
D|---------------------------------------------------|
A|---------------------------------------------------|
E|---------------------------------------------------|#/15t2##/15t1#

#16t1##16t2#E|-4-4-4-4-4-4-4-4-4-4-4-4-4-4-4-4-------------------|
B|-5-5-5-5-5-5-5-5-5-5-5-5-5-5-5-5-------------------|
G|---------------------------------------------------|
D|---------------------------------------------------|
A|---------------------------------------------------|
E|---------------------------------------------------|#/16t2##/16t1#

     E
The more I see the less I know
                           F#  G#m   F#  E
The more I like to let it go  hey oh

[Riff da Ponte]

#17t1##17t2#E|-11---11---9-h11--11--11-11-11-11-11-11-11-11-11-11|
B|-12---12---12-----12--12-12-12-12-12-12-12-12-12-12|
G|----------------------13-13-13-13-13-13-13-13-13-13|
D|---------------------------------------------------|
A|---------------------------------------------------|
E|---------------------------------------------------|#/17t2##/17t1#

[Refrão]

 B                          F#
Deep beneath the cover of another perfect wonder
            C#5
Where it's so white as snow
  B                     F#
Privately divided by a world so undecided
             C#5
And there's nowhere to go
B                         F#
In between the cover of another perfect wonder
            C#5
Where it's so white as snow
 B                                       F#
Running through the field where all my tracks will
                          C#5
Be concealed and there's nowhere to go oh!

[Riff 1 - 2x:]

#18t1#    B
#18t2#E|---------------------------------------------------|
B|---------------------------------------------------|
G|-11-11-11-11-11-11-11-11-11-11-11-11-11-11-11-11---|
D|---------------------------------------------------|
A|-9--9--9--9--9--9--9--9--9--9--9--9--9--9--9--9----|
E|---------------------------------------------------|#/18t2##/18t1#
#19t1#    F#
#19t2#E|---------------------------------------------------|
B|---------------------------------------------------|
G|-15-15-15-15-15-15-15-15-15-15-15-15-15-15-15-15---|
D|---------------------------------------------------|
A|-13-13-13-13-13-13-13-13-13-13-13-13-13-13-13-13---|
E|---------------------------------------------------|#/19t2##/19t1#
#20t1#    C#5
#20t2#E|---------------------------------------------------|
B|---------------------------------------------------|
G|-13-13-13-13-13-13-13-13-13-13-13-13-13-13-13-13---|
D|---------------------------------------------------|
A|-11-11-11-11-11-11-11-11-11-11-11-11-11-11-11-11---|
E|---------------------------------------------------|#/20t2##/20t1#

#21t1##21t2#E|---------------------------------------------------|
B|---------------------------------------------------|
G|-13-13-13-13-13-13-13-13-13-13-13-13-13-13-13-13---|
D|---------------------------------------------------|
A|-11-11-11-11-11-11-11-11-11-11-11-11-11-11-11-11---|
E|---------------------------------------------------|#/21t2##/21t1#

        B    F#       C#5
I said hey, yeah, oh yeah, tell my lord now
 B    F#       C#5
Hey, yeah, oh yeah, tell my lord now

[Refrão]

#22t1##22t2#E|-11----------11--------9-9-9----------9-------------|
B|----12----12----12-----------11----11---------------|
G|-------11----------11-----------11------------------|
D|----------------------------------------------------|
A|----------------------------------------------------|
E|----------------------------------------------------|#/22t2##/22t1#


#23t1##23t2#E|-------11-11-11----------11-------------------------|
B|-11-------------12----12----12----------------------|
G|----11-------------13----------13-------------------|
D|----------------------------------------------------|
A|----------------------------------------------------|
E|----------------------------------------------------|#/23t2##/23t1#

 B                          F#
Deep beneath the cover of another perfect wonder
            C#5
Where it's so white as snow
  B                     F#
Privately divided by a world so undecided
             C#5
And there's nowhere to go

 B                          F#
Deep beneath the cover of another perfect wonder
            C#5
Where it's so white as snow
 B                                       F#
Running through the field where all my tracks will
                          C#5
Be concealed and there's nowhere to go oh!

#24t1#    B                              F#
#24t2#E|-11----------11-11-11-------9-9-9----------9-9-9---|
B|----12----12----------12----------11----11-------11|
G|-------11----------------11----------11------------|
D|---------------------------------------------------|
A|---------------------------------------------------|
E|---------------------------------------------------|#/24t2##/24t1#

#25t1#             C#5
#25t2#E|----9-9-9-------11-11-11---------------------------|
B|-11-------11-------------12------------------------|
G|-------------11-------------13---------------------|
D|---------------------------------------------------|
A|---------------------------------------------------|
E|---------------------------------------------------|#/25t2##/25t1#

        B       F#       C#5
I said hey, oh yeah, oh yeah, tell my lord now
 B    F#       C#5
Hey, yeah, oh yeah

( B  F#  C#5 )
( B  F#  C#5 )

#26t1#    B      F#      C#5
#26t2#E|----------------11---------------------------------|
B|-7------11------14b16~-----------------------------|
G|-9b11~--13b15~-------------------------------------|
D|---------------------------------------------------|
A|---------------------------------------------------|
E|---------------------------------------------------|#/26t2##/26t1#
#27t1#    B      F#      C#5
#27t2#E|---------------------------------------------------|
B|-7------11------14---------------------------------|
G|-9b11~--13b15~--16b18~-----------------------------|
D|---------------------------------------------------|
A|---------------------------------------------------|
E|---------------------------------------------------|#/27t2##/27t1#
Composição: Anthony Kiedis / Chad Smith / Flea / John FruscianteColaboração e revisão: Vinícius DiasGetúlio VasconcelosRuan AbreuRodrigo Garrubboe mais 14
Videoaula Snow (Hey Oh) (aula de guitarra)