busca

Someone

Red Hot Chili Peppers

Tom: G
e|----12-----8-----10-----------------|
b|----13-----10----12---12---10--8----|
g|----12-----9----------12------------|
d|-9--------------------12------------|
a|------------------------------------|
E|------------------------------------|

Play this mostly through the song


When you hear him strumming he plays these chords

C    Am     Bm      G


e|--8--------10b(12)-10--8--7---------|
b|----8--10---------------------------|
g|------------------------------------|  repeat
d|------------------------------------|
a|------------------------------------|
E|------------------------------------|


Then last time play 

e|--8--------10b(12)-10---------------|
b|----8--10-------------10--8---------|
g|------------------------------------|
d|------------------------------------|
a|------------------------------------|
E|------------------------------------|



*************************************************
Tab 2 :

Tabbed by Matt Nicholas
nevermoreh@hotmail.com


Main
E|------------|------------|-------------|---------------|
B|--------17--|--------13--|---------13--|--12-----------|
G|--------17--|--------14--|---------14--|--12-14-12-----|
D|-----17-----|-----14-----|---------15--|---------------|
A|--15--------|--12--------|-----15-(15)-|---------------|
E|------------|------------|--13---------|---------------|

Chorus
E|--------------|-------------------------|-----------------|--------------------------|
B|--------------|-------------------------|-----------------|--------------------------|
G|--------------|-------------------------|-----------------|--------------------------|
D|--------------|-------12/14-12----------|-----------------|--------12/14\12----------|
A|-15-14--------|----------------15-14~---|-/15-14----------|-----------------15-14----|
E|-------15--17-|-13-13-------------------|--------15-15/17-|-\13-13----------------15-|

E|--------------|-----------|
B|--------------|-----------|
G|--------------|-16---15---| On last time
D|--------------|-15---17---|
A|-15-14--------|-15---17---|
E|-------15--17-|-13---15---|

Solo
E|-----------------|-------------------|
B|-----------------|-15^(17)-15--------|
G|-17-16-----------|------------17-16--| Just play around with
D|-------17-17/19--|-------------------| this and repeat 4 times
A|-----------------|-------------------|
E|-----------------|-------------------|

Outro
E|---------------|--------------------|--------|
B|-----------13--|-----------12-13-12-|--------|
G|-----------14--|-------14--12-------|---17---|
D|-----14----14--|--------------------|--17----|
A|--15-------12--|----15--------------|-15-----|
E|--------15-----|-13-----------------|--------|


*************************************************
Tab 3 :

e|----12-----8-----10-----------------|
b|----13-----10----10---12---10--8----|
g|----12-----9-----10---12------------|
d|-9---------------10---12------------|x2
a|---------------8------10------------|
E|------------------------------------|

e|------------------------------------|
b|------------------------------------|
g|------------------------------------|
d|--------7-7--(10)--12/14--12\--10--9|
a|-7--10---------8--------------------|
E|------------------------------------|

Last Time Play


e|------------------------------------|
b|------------------------------------|
g|------------------------------------|
d|--------7-7--(10)-(12)--------------|
a|-7--10---------8---10---------------|
E|------------------------------------|


e|-----------------------------------------|
b|-(13)bd(12)-----------15b(17)--15--13--12|
g|------------12--14-----------------------|  
d|-----------------------------------------|
a|-----------------------------------------|
E|-----------------------------------------|


e|------------------------------15--------------------|
b|-(13)bd(12)-----------15b(17)-----(17)bd(15)--13--12|
g|------------12--14----------------------------------|  
d|----------------------------------------------------|
a|----------------------------------------------------|
E|----------------------------------------------------|


Then last time play 

e|--------------------------------------------|
b|-(13)bd(12)-----------15b(17)---------------|
g|------------12--14-------------14b(16)-14-12|  
d|--------------------------------------------|
a|--------------------------------------------|
E|--------------------------------------------|

Then i think you play the chords like this


e|-15----12---15---15---|
b|-17----14---13---15---|
g|-17----15---14---16---|  
d|-17----15---15---17---|
a|-15----12--------17---|
E|-----------------15---|


e|------------------------------------------------------|
b|------------------------------------------------------|
g|----9---------------------/12-------------------------|
d|-10---10----------(10)--------(12)---10-9-------------|
a|----------10/12----8---8-------10---------------------|
E|------------------------------------------------------|

Last Time Play

e|------------------------------------------------------|
b|------------------------------------------------------|
g|----9-------------------------------------------------|
d|-10---10----------(10)--------(12)--------------------|
a|----------10/12----8---8-------10---10----------------|
E|------------------------------------------------------|

Clipes