busca

Soul To Squeeze

Red Hot Chili Peppers

Tom: F
Introdução:

E|-------------------------------------------|
B|-------------------------------------------|
G|-------2------4br(5)-2-----------2---------|
D|----2-----------------------2h4------------|
A|-0--------0-------------0------------------|
E|-------------------------------------------|

E|-------------------------------------------|
B|-----------------------------5-------------|
G|-------2-----------2-----4/6---6/4p2-------|
D|----2--------2-----------------------------|
A|-0--------0-----0-----0--------------------|
E|-------------------------------------------|

E|-------------------------------------------|
B|-------------------------------------------|
G|-------2------4br(5)-2-----------2---------|
D|----2-----------------------2h4------------|
A|-0--------0-------------0------------------|
E|-------------------------------------------|

E|-------------------------------------------|
B|-------------------------------------------|
G|-------2-----------2-----------------------|
D|----2--------2---------------0-------------|
A|-0--------0-----0-----0--------------------|
E|-------------------------3br----3----------|

E|-------------------------------------------|
B|-------------------------------------------|
G|-------2------4br(5)------------2----------|
D|----2-----------------------2h4------------|
A|-0--------0-------------0------------------|
E|-------------------------------------------|

E|-------------------------------5-----------|
B|-------------------------------------------|
G|-------2------------------4/6-----6\4p2----|
D|----2--------2-----2-----------------------|
A|-0--------0-----0-----0--------------------|
E|-------------------------------------------|

                                              A
E|---------------------------------------------------------|
B|-------------------------------------------2-2--2-2--2-2-|
G|-------2-----4br(5)-2------------2------2--2-2--2-2--2-2-|
D|----2-----------------------2h4-------2----2-2--2-2--2-2-|
A|-0--------0------------0------------0------0-0--0-0--0-0-|
E|---------------------------------------------------------|


Verso

Guitarra 1:

     F          C              Dm
E|----1---------------------------------------|
B|----1----------5-5-5-----------6-6--6-6-----|
G|----2----------5-5-5-----------7-7--7-7-----|
D|----3----------5-5-5-----------7-7--7-7-----|
A|----3--------3-3-3-3-3-5/7--5--5-5--5-------|
E|--1----1-3/5--------------------------6-----|
                                                    2x  (e após a linha do baixo, tocar mais 1x)
     Dm                F             C     Gm7
E|----------------------------------------3-(5)3--|
B|--6-6-6-6-6-6-6-6---10-10-10-10---5-5---3----3--|
G|--7-7-7-7-7-7-7-7---10-10-10-10---5-5---3----3--|
D|--7-7-7-7-7-7-7-7---10-10-10-10---5-5---3----3--|
A|--5-5-5-5-5-5-5-5---8--8--8--8----3-3-----------|
E|----------------------------------------3----3--|
    ↓ ↑ ↓ ↑ ↓ ↑ ↓ ↑   ↓  ↑  ↓  ↑    ↓ ↓

Guitarra 2:

E|----------------------|----------------------------------------|
B|--8/10---8/10---------|--------------13/15--15\13--------10----|
G|----------------------|----------------------------------------|
D|----------------------|----------------------------------------|
A|----------------------|----------------------------------------|
E|----------------------|----------------------------------------|

E|-------------|---------------|--------------|-----------------------|
B|----13--10---|---------------|-----------13-|--10---------13/15~----|
G|-------------|--10~----------|---12b(14)----|-----------------------|
D|-------------|---------------|--------------|-----------------------|
A|-------------|---------------|--------------|-----------------------|
E|-------------|---------------|--------------|-----------------------|

E|---------------------|------------------------|
B|----13/15~--------13-|-------10---------------|
G|---------------------|------------------------|
D|---------------------|------------------------|
A|---------------------|------------------------|
E|---------------------|------------------------|



   Well all the love from me
E|---------------------------------------------|
B|-------------------------------13/15\13~-----|
G|---------------------------------------------|
D|---------------------------------------------|
A|---------------------------------------------|
E|---------------------------------------------|

  With all these dying trees i scream
E|---------------------------------------------|
B|--------------------------------------13-10~-|
G|---------------------------------------------|
D|---------------------------------------------|
A|---------------------------------------------|
E|---------------------------------------------|

  The angels in my dreams
E|---------------------------------------------|
B|-------------------------8h10p8\6------------|
G|---------------------------------------------|
D|---------------------------------------------|
A|---------------------------------------------|
E|---------------------------------------------|

  Have turned to demons of greed that's me
E|---------------------------------------------|
B|---------------------------------------------|
G|---------------------------------------------|
D|---------------------------------------------|
A|---------------------------------------------|
E|---------------------------------------------|

Refrão:

     F      C      Dm    Bb
E|----------------0-----0----------------------|
B|--10-----8------6----------------------------|
G|--10-----9------7-----7----------------------|
D|--10-----10-----7-----8----------------------|
A|--8------10-----5-----8----------------------|
E|---------8------------6----------------------|

     F      C      Dm             Am   Bb
E|----------------0-0-0-0-0-0-0----------------|
B|--10-----8------6-6-6-6-6-6-6----------------|
G|--10-----9------7-7-7-7-7-7-7--5-5--7--------|
D|--10-----10-----7-7-7-7-7-7-7--7-7--8--------|
A|--8------10-----5-5-5-5-5-5-5--7-7--8--------|
E|---------8---------------------5-5--6--------|

Verso (sem guitarra 1)

Guitarra 2:

  Today love smiled on me
E|---------------------------------------------|
B|----13~--------------------------------------|
G|---------------------------------------------|
D|---------------------------------------------|
A|---------------------------------------------|
E|---------------------------------------------|

  It took away my pain, said please
E|-------------------------------------------------------------|
B|---------------------------------------13-15--10h13p10\8-6---|
G|-------------------------------------------------------------|
D|-------------------------------------------------------------|
A|-------------------------------------------------------------|
E|-------------------------------------------------------------|

  All that you ride is free
E|--------------------------------------------------|
B|-----------------------------10h13-10-8-----------|
G|--------------------------------------------------|
D|--------------------------------------------------|
A|--------------------------------------------------|
E|--------------------------------------------------|

  You gotta let it be, oh yeah
E|---------------------------------------------|
B|---------------------------------------------|
G|---------------------------------------------|
D|---------------------------------------------|
A|---------------------------------------------|
E|---------------------------------------------|

(Refrão)


Solo:

E|---------------------------------------------------------------|
B|-----------------------------------------------------------13--|
G|--12br(14)-10--12b14---10~-------------12b(14)-14*-14*-14*-----|
D|---------------------------------------------------------------|
A|---------------------------------------------------------------|
E|---------------------------------------------------------------|
*Mantendo o bend

E|-------------------------------|
B|-------------------------------|
G|--14*-12br-10-------10---------|
D|----------------10b------------|
A|-------------------------------|
E|-------------------------------|

E|------------------------------------------|
B|------------------------------------------|
G|--12br(14)-10--12b14---10br(12)-----------|
D|--------------------------------10b-------|
A|------------------------------------------|
E|------------------------------------------|


E|--------------------------------------------------------|
B|---------------------13br(15)-----10--8---6--5----------|
G|--12/14-14-14-----------------14--12b-10b-8b-7b---------|
D|--------------------------------------------------------|
A|--------------------------------------------------------|
E|--------------------------------------------------------|

Break

Guitarra 1:

     Dm      C           Am
E|-----------------------------------------|
B|-----6-x------5-5-5---5--5--5-5-5-5--5---|
G|-----7-x------5-5-5---5--5--5-5-5-5--5---|
D|-----7-x------5-5-5---7--7--7-7-7-7--7---|     3x
A|--5--5----3---3-3-3---7--7--7-7-7-7--7---|
E|----------------------5--5--5-5-5-5--5---|
    ↓  ↑ ↓  ↓   ↓ ↑ ↓   ↓  ↓  ↑ ↓ ↑ ↓  ↑


 Dm      C               Am      Bb
E|------------------------------------|
B|-----6-x------5-5-5---5--5-5--------|
G|-----7-x------5-5-5---5--5-5--7-----|
D|-----7-x------5-5-5---7--7-7--8-----|
A|--5--5----3---3-3-3---7--7-7--8-----|
E|----------------------5--5-5--6-----|
    ↓  ↑ ↓  ↓   ↓ ↑ ↓

Guitarra 2:

  Yeah
E|---------------------------------------------|
B|------13b(15)--------------------------------|
G|---------------------------------------------|
D|---------------------------------------------|
A|---------------------------------------------|
E|---------------------------------------------|

E|--------------------------------------------------|
B|----------13b(15)------------15\13--10--13b(15)---|
G|--5b(7)-------------------------------------------|
D|--------------------------------------------------|
A|--------------------------------------------------|
E|--------------------------------------------------|

E|---------------------------------------------------------------------|
B|---------------------------------------------13b(15)---10--13--10\6~-|
G|----------------------------------------5b(7)------------------------|
D|---------------------------------------------------------------------|
A|---------------------------------------------------------------------|
E|---------------------------------------------------------------------|

Verso (com guitarra 1)

Guitarra 2:

  It's bitter baby and it's very sweet
E|---------------------------------------------------|
B|----------------------------------------13/15~-----|
G|---------------------------------------------------|
D|---------------------------------------------------|
A|---------------------------------------------------|
E|---------------------------------------------------|

  I'm on a rollercoaster but i'm on my feet
E|-----------------------------------------------------|
B|----------------------------------------------18-15~-|
G|-----------------------------------------------------|
D|-----------------------------------------------------|
A|-----------------------------------------------------|
E|-----------------------------------------------------|

  Take me to the river let me on your shore
E|------------------------------------------------------|
B|--------------------------------------------13br(15)--|
G|------------------------------------------------------|
D|------------------------------------------------------|
A|------------------------------------------------------|
E|------------------------------------------------------|

  I'll becoming back baby i'll becoming back for more
E|------------------------------------------------------|
B|--------------------------10br(12)---8-----------6----|
G|------------------------------------------------------|
D|------------------------------------------------------|
A|------------------------------------------------------|
E|------------------------------------------------------|

  Doo doo doo doo dingle zing a dong bone
E|---------------------------------------------|
B|---------------------------------------------|
G|---------------------------------------------|
D|---------------------------------------------|
A|---------------------------------------------|
E|---------------------------------------------|

  Ba di ba da ba zumba crunga bong gone bad
E|---------------------------------------------|
B|------------------------8b(10)-----------6~--|
G|---------------------------------------------|
D|---------------------------------------------|
A|---------------------------------------------|
E|---------------------------------------------|

  Like an apple gift but i went and never said my pleasures
E|-----------------------------------------------------------|
B|-----------------------------------------------------------|
G|-----------------------------------------------------------|
D|-----------------------------------------------------------|
A|-----------------------------------------------------------|
E|-----------------------------------------------------------|

  I'm much better but i won't regret it never
E|-----------------------------------------------|
B|-----------------------------------------------|
G|-----------------------------------------------|
D|-----------------------------------------------|
A|-----------------------------------------------|
E|-----------------------------------------------|

Refrão (com guitarra 1 duas vezes e finaliza com acorde de F maior)

Guitarra 2:

       Where i go
E|---------------------------------------------|
B|---------------------------------------------|
G|-------12b(14)-------------------------------|
D|---------------------------------------------|
A|---------------------------------------------|
E|---------------------------------------------|

  I just don't know
E|---------------------------------------------|
B|---------------------------------------------|
G|-----------------------12\10~----------------|
D|---------------------------------------------|
A|---------------------------------------------|
E|---------------------------------------------|

  I got to, gotta, gotta take it slow
E|-----------------------------------------------------|
B|-----------------------------------------------------|
G|------------------------------------------10/12--10~-|
D|-------------------------10b(12)---------------------|
A|-----------------------------------------------------|
E|-----------------------------------------------------|

  When i find my piece of mind
E|---------------------------------------------|
B|--------------13b(15)-13--10~----------------|
G|---------------------------------------------|
D|---------------------------------------------|
A|---------------------------------------------|
E|---------------------------------------------|

 I'm gonna give you some of my good time
E|---------------------------------------------|
B|-----------------13b(15)-------------15------|
G|---------------------------------------------|
D|---------------------------------------------|
A|---------------------------------------------|
E|---------------------------------------------|

          Where i go
E|---------------------------------------------|
B|-----------8b(10)----------------------------|
G|---------------------------------------------|
D|---------------------------------------------|
A|---------------------------------------------|
E|---------------------------------------------|

  I just don't know
E|----------------------0----------------------|
B|---8br(10)------6-----6----------------------|
G|---------------------------------------------|
D|---------------------------------------------|
A|---------------------------------------------|
E|---------------------------------------------|

  I might end up somewhere in mexico
E|---------------------------------------------|
B|-----------------6br(8)----------6-----------|
G|-------------------------7br(9)----7---------|
D|---------------------------------------------|
A|---------------------------------------------|
E|---------------------------------------------|

  When i find my piece of mind
E|---------------------------------------------|
B|-6br(8)--10------6br(8)---13---10------------|
G|---------------------------------------------|
D|---------------------------------------------|
A|---------------------------------------------|
E|---------------------------------------------|

  I'm gonna keep it for the end of time
E|---------------------------------------------|
B|---------------------------------------------|
G|---------------------------------------------|
D|---------------------------------------------|
A|---------------------------------------------|
E|---------------------------------------------|

    F

Clipes

Cifra Club Pro

Aproveite o Cifra Club com benefícios exclusivos e sem anúncios
7 dias grátis
Cifra Club Pro
Aproveite o Cifra Club com benefícios exclusivos e sem anúncios
7 dias grátis