busca

Storm In A Teacup

Red Hot Chili Peppers

Tom: F
Introdução:

   F5    G5            
e|---------------------5--3--|
B|---------------------5--3--|
G|---------------------5--3--|
D|-3-/-5-5-5-5-5-5-5---------|
A|-3-/-5-5-5-5-5-5-5---------|
E|-1-/-3-3-3-3-3-3-3---------|



Pré-Refrão: (obs.: ele faz essas notas por mais tempo)

e|15-15-15-15-15-15-15-15-15-15-14-14-14-14-14-14-14-14-14-14--|
B|15-15-15-15-15-15-15-15-15-15-14-14-14-14-14-14-14-14-14-14--|
G|15-15-15-15-15-15-15-15-15-15-14-14-14-14-14-14-14-14-14-14--| 2X
D|-------------------------------------------------------------|
A|-------------------------------------------------------------|
E|-------------------------------------------------------------|



Refrão:

     C5      A#5       F5       G5
e|--------|--------|--------|--------|
B|--------|--------|--------|--------|
G|---5----|---3----|--------|--------|
D|---5----|---3----|---3----|---5----| 3X
A|---3----|---1----|---3----|---5----|
E|--------|--------|---1----|---3----|

     C5      A#5       D5      F5
e|--------|--------|--------|--------|
B|--------|--------|--------|--------|
G|---5----|---3----|---7----|---10---|
D|---5----|---3----|---7----|---10---| 
A|---3----|---1----|---5----|---8----|
E|--------|--------|--------|--------|

     F5       G5       G5      
e|--------|--------|--------|
B|--------|--------|--------|
G|--------|--------|--------|
D|---3----|---5----|---5----| 7X
A|---3----|---5----|---5----|
E|---1----|---3----|---3----|


Riff do 2º Refrão:

e|----13-------------------------------------------------------------------13b------
B|13b----13/15-------11-------------------------------------------------------------
G|---------------10b----10/12------10--------------------------------10/12----------
D|-----------------------------10b----10/12--10-----7h8-7----10/12------------------
A|----------------------------------------------------------------------------------
E|----------------------------------------------------------------------------------

e|-------------------------------------------------------------------18-20b-18--20b-|
B|--------------------------11-13-13b-11--------15-18b-15---16h18h20----------------|
G|--------------------10h12---------------15h17-------------------------------------|
D|----------------------------------------------------------------------------------|
A|10--8--5--3---3/10----------------------------------------------------------------|
E|----------------------------------------------------------------------------------|



Solo Final:

e|-------------------------------------------------------------------------------------------------
B|15h18h15h18h15h18h15h18h15h18h15h18h15h18h15h18h15h18h15h18h15-18b-15-----18------------18-------
G|----------------------------------------------------------------------17b----17-15--17b----17-15-
D|-------------------------------------------------------------------------------------------------
A|-------------------------------------------------------------------------------------------------
E|-------------------------------------------------------------------------------------------------

e|--------------------------------------|
B|--------------------------------------|
G|17-15---15-12-12/15----12---10--------|
D|-------------------------------10-8b--|
A|--------------------------------------|
E|--------------------------------------|

Clipes

Cifra Club Pro

Aproveite o Cifra Club com benefícios exclusivos e sem anúncios
7 dias grátis
Cifra Club Pro
Aproveite o Cifra Club com benefícios exclusivos e sem anúncios
7 dias grátis