busca

Tear

Red Hot Chili Peppers

Tom: C
[Intro 

    C      G      Am
E|--------------------------|
B|---5~-----3~-----5~-------|
G|---5~-----4~-----5~-------|
D|---5~-----5~-----7~-------|
A|-3------------------------|
E|--------3------5----------|

[Refrão  

C  C/B  Am  G  F  Em  Dm  G  C/B

[Pós-Refrão  

Am 

C        G
  This is my time
           Am     C
This is my tear
          G
I can see clearly now
     Am
That this is not a place
                     C
For playing solitaire
         G        Am       C
Tell me where you want me
           G
This is my time
           Am
This is my tear

Comin' on strong
Baudelaire
Seems to me like
All the world gets high
When you take a dare
Let it rise before you
This is my time

[Refrão  

C       C/B                            
  All in all I'm                       
Am           G                         
Loving every rise and fall             
     F                Em               
The sun will make and I will take      
Dm            G                        
Breath to be sure of this              
C       C/B                           
  In the end                           
Am             G                       
All will be forgiven when              
    F            Em                    
Surrender rises high and I             
 Dm          G                         
Gave what I came to give               
Am                                 Am  
  Say it now because you never know   


Devil may cry devil may care
Distiller's got a scream
And now I know just why
When she's movin' air
Can you feel the voltage
This is my time

[Solo 

E|-------------------------------------|     |-----------------|
B|-------------------------------------|     |-----------------|
G|-9-10-12-10-9------------------------|  4x |-----9-----------|
D|-------------10--9-10-12--10-9---9---|     |--10----12p10----|
A|---------------10-------------10--12-|     |--------------12-|
E|-------------------------------------|     |-----------------|

E|-----------------------------------------|     |-----------------|
B|-----------------------------------------|     |-----------------|
G|-9-10-12-10-9-------------10-------------|  3x |----9------------|
D|-------------10---9-10-12----12---9---10-|     |-10--- 12p10-----|
A|---------------10---------------10--12---|     |--------------12-|
E|-----------------------------------------|     |-----------------|

California skies
Got room to spare
This is my time

[Refrão 

[Solo 

E|12----|10----|12----|10---12-13|12----|10--17--|12----|10----|12--15--|
B|------|------|------|----------|------|--------|------|------|--------|
G|------|------|------|----------|------|--------|------|------|--------|
D|------|------|------|----------|------|--------|------|------|--------|
A|------|------|------|----------|------|--------|------|------|--------|
E|------|------|------|----------|------|--------|------|------|--------|


E|-12-15-17-15-12---12-15-17-15-12---12-15-17-15-12------------|
B|-------------------------------------------------------------|
G|-------------------------------------------------------------| x2
D|-------------------------------------------------------------|
A|-------------------------------------------------------------|
E|-------------------------------------------------------------|

Take it outside
Take it out there
Seems to me like
All the world gets high
When you take a dare
In the final moment
This is my time

[Refrão 

[Final  Am



Clipes