busca

Tell Me Baby

Red Hot Chili Peppers

Tom: C
[Intro]

E|------------------------------------------|
B|---1----1--------0---1--------------------|
G|-2-----0-----0---------2------------------|
D|-3----------------------------------------|
A|-------3-------------0--------------------|
E|-------------3----------------------------|
 
E|-------------------1----------------------|
B|---1----1--------0-3----------------------|
G|-2-----0-----0-----2----------------------|
D|-3-----------------0----------------------|
A|-------3-----------0----------------------|
E|-------------3-----0----------------------|
 
E|------------------------------------------|
B|---1----1--------0---1h3------------------|
G|-2-----0-----0----------2-----------------|
D|-3----------------------------------------|
A|-------3-------------0--------------------|
E|-------------3----------------------------|
 
E|-------------------1----------------------|
B|---1----1--------0-0----------------------|
G|-2-----0-----0-----0----------------------|
D|-3-----------------0----------------------|
A|-------3-----------2----------------------|
E|-------------3-----3----------------------|
 
E|-------------------------------8-7--------|
B|-8-10-8-10--8-10--8-10---8-10-8---9-8-10--|
G|-x---9----9-----9-----9-9-----------------|
D|-x----------------------------------------| (3x)
A|------------------------------------------|
E|------------------------------------------|
 
E|------------------------------------------|
B|--------------13-12-----------------------|
G|-x-12--14-----------x-14-x--12-14---------|
D|-x---------14-------x----x----------------|
A|------------------------------------------|
E|------------------------------------------|
  
E|------------------------------------------|
B|------------------------------------------|
G|-x-12--14-----x-12-x-14-x-------x-x-x-x---|
D|-x---------14-x----x----x-14-14-x-x-x-x---| (3x)
A|------------------------------------------|
E|------------------------------------------|
    
E|------------------------------------------|
B|--------------13-12-----------------------|
G|-x-12--14-----------x-14-x--12-14---------|
D|-x---------14-------x----x----------------|
A|------------------------------------------|
E|------------------------------------------|
   
E|-12-x-x-12-x-x-12-x-x-12-12---12-12--x-x--12-x-12-x-x-|
B|-12-x-x-12-x-x-12-x-x-12-12---12-12--x-x--12-x-12-x-x-|
G|----x-x----x-x----x-x----------------x-x-----x----x-x-|
D|------------------------------------------------------| (3x)
A|------------------------------------------------------|
E|------------------------------------------------------|
  
E|-15-15-15-15-15-15-15-15-15-15-15-15------------------|
B|-15-15-15-15-15-15-15-15-15-15-15-15------------------|
G|-16-16-16-16-16-16-16-16-16-16-16-16------------------|
D|------------------------------------------------------|
A|------------------------------------------------------|
E|------------------------------------------------------|
  
E|------------------------------------------------------|
B|------------------------------------------------------|
G|-x-12--14-----x-12-x-14-x-------x-x-x-x---------------|
D|-x---------14-x----x----x-14-14-x-x-x-x---------------| (3x)
A|------------------------------------------------------|
E|------------------------------------------------------|
    
E|------------------------------------------------------|
B|------------------------------------------------------|
G|-x-12--14--12h14~-------------------------------------|
D|-x----------------------------------------------------|
A|------------------------------------------------------|
E|------------------------------------------------------|
  
[Refrão]

E|----------------------------------------------------13---------|
B|----13-----13-----12--13---------13-----13-----12---------15---|
G|-14-----12-----12--------14---14-----12-----12------14--14--14-|
D|-15-----14-----12-----14------15-----14-----12-----------------|
A|---------------------------------------------------------------|
E|---------------------------------------------------------------|
   
E|--------------------------------------------13-13-x-13-13-x-13-|
B|----13-----13-----12--13--------13-----13---12-12-x-12-12-x-12-|
G|-14-----12-----12--------14--14-----12------12-12-x-12-12-x-12-|
D|-15-----14-----12-----14-----15-----14-------------------------|
A|---------------------------------------------------------------|
E|---------------------------------------------------------------| 
  
E|---------------------22^~~-------------------------------------|
B|-------------10~~~---------------------------------------------|
G|-------9~~-----------------------------------------------------|
D|---------------------------------------------------------------|
A|-0~~-----------------------------------------------------------|
E|---------------------------------------------------------------|
 
[Verse 2]
E|---------------------------------------------------------------|
B|---------------------------------------------------------------|
G|-x-12--14-----x-12-x-14-x-------x-x-x-x------------------------|
D|-x---------14-x----x----x-14-14-x-x-x-x------------------------| (3x)
A|---------------------------------------------------------------|
E|---------------------------------------------------------------|
    
E|---------------------------------------------------------------|
B|--------------13-12--------------------------------------------|
G|-x-12--14-----------x-14-x--12-14------------------------------|
D|-x---------14-------x----x-------------------------------------|
A|---------------------------------------------------------------|
E|---------------------------------------------------------------|
   
E|-12-x-x-12-x-x-12-x-x-12-12---12-12--x-x--12-x-12-x-x----------|
B|-12-x-x-12-x-x-12-x-x-12-12---12-12--x-x--12-x-12-x-x----------|
G|----x-x----x-x----x-x----------------x-x-----x----x-x----------|
D|---------------------------------------------------------------| (3x)
A|---------------------------------------------------------------|
E|---------------------------------------------------------------|
  
E|-15-15-15-15-15-15-15-15-15-15-15-15---------------------------|
B|-15-15-15-15-15-15-15-15-15-15-15-15---------------------------|
G|-16-16-16-16-16-16-16-16-16-16-16-16---------------------------|
D|---------------------------------------------------------------|
A|---------------------------------------------------------------|
E|---------------------------------------------------------------|
  
E|---------------------------------------------------------------|
B|---------------------------------------------------------------|
G|-x-12--14-----x-12-x-14-x-------x-x-x-x------------------------|
D|-x---------14-x----x----x-14-14-x-x-x-x------------------------| (3x)
A|---------------------------------------------------------------|
E|---------------------------------------------------------------|
    
E|---------------------------------------------------------------|
B|---------------------------------------------------------------|
G|-x-12--14--12h14~----------------------------------------------|
D|-x-------------------------------------------------------------|
A|---------------------------------------------------------------|
E|---------------------------------------------------------------|
  
[Refrão]

E|----------------------------------------------------13---------|
B|----13-----13-----12--13---------13-----13-----12---------15---|
G|-14-----12-----12--------14---14-----12-----12------14--14--14-|
D|-15-----14-----12-----14------15-----14-----12-----------------|
A|---------------------------------------------------------------|
E|---------------------------------------------------------------|
   
E|--------------------------------------------13-13-x-13-13-x-13-|
B|----13-----13-----12--13--------13-----13---12-12-x-12-12-x-12-|
G|-14-----12-----12--------14--14-----12------12-12-x-12-12-x-12-|
D|-15-----14-----12-----14-----15-----14-------------------------|
A|---------------------------------------------------------------|
E|---------------------------------------------------------------| 
  
[Solo] 

E|------------------------------------------------------------------------------------------------|
B|------------------------------------------------------------------------------------------------|
G|------------------------------------------------------------------------------------------------|
D|-14~--10h12p10---------10-12-----10-12------10-12-----10-12--------10------10-------12-------10-|
A|----------------12--12--------12---------12--------12--------10-12----10-12---10-12-----12-10---|
E|------------------------------------------------------------------------------------------------|
 
E|---------------------------------15-16-17-------------------------------------------------------|
B|--------------------------13-15-----------------------------------------------------------------|
G|--------------12-x-12-14------------------------------------------------------------------------|
D|----12----10------------------------------------------------------------------------------------|
A|-12----12---------------------------------------------------------------------------------------|
E|------------------------------------------------------------------------------------------------|
 
[Refrão]

E|----------------------------------------------------13------------------------------------------|
B|----13-----13-----12--13---------13-----13-----12---------15------------------------------------|
G|-14-----12-----12--------14---14-----12-----12------14--14--14----------------------------------|
D|-15-----14-----12-----14------15-----14-----12--------------------------------------------------|
A|------------------------------------------------------------------------------------------------|
E|------------------------------------------------------------------------------------------------|
   
E|--------------------------------------------13-13-x-13-13-x-13----------------------------------|
B|----13-----13-----12--13--------13-----13---12-12-x-12-12-x-12----------------------------------|
G|-14-----12-----12--------14--14-----12------12-12-x-12-12-x-12----------------------------------|
D|-15-----14-----12-----14-----15-----14----------------------------------------------------------|
A|------------------------------------------------------------------------------------------------|
E|------------------------------------------------------------------------------------------------|

Clipes

Cifra Club Pro

Aproveite o Cifra Club com benefícios exclusivos e sem anúncios
7 dias grátis
Cifra Club Pro
Aproveite o Cifra Club com benefícios exclusivos e sem anúncios
7 dias grátis