Tom: G
#1t1#Intro :
#1t2#E|---------------9--7---8---9-----10--6-------|
B|-5---/7-/---------9---10--11----12--8-------|
G|-7---/9-/-----------------------------------|
D|--------------------------------------------|
A|----------------------------------------0\--|
E|--------------------------------------------|#/1t2##/1t1#

#2t1#Verso:
#2t2#E|-14-14--14----x-----------x--14-14--14----x-7---7\--|
B|-15-15--15----x-----------x--15-15--15----x-10--9\--|
G|-14-14--14----x-----------x--14-14--14----x-9---9\--|
D|-x--x---x---------7---9-----------------------------|
A|-14-14--14------------------------------------------|
E|----------------------------------------------------|#/2t2##/2t1#

#3t1#Refrão :
#3t2#E|------------------------------------------|
B|-7-------7-------7-------------11-11--11--|
G|-7-------7-------7-------------9--9---9---|
D|----9-------9-------9----7--9--10-10--10--|
A|------------------------------------------|
E|------------------------------------------|#/3t2##/3t1#

#4t1#Ponte:
#4t2#E|-7------7------4----6----|
B|-7------6------3----5----|
G|-7------7------4----6----|
D|-------------------------|
A|-------------------------|
E|-------------------------|#/4t2##/4t1#

#5t1#Solo:
#5t2#E|--------------------------------------|
B|--------------------------------------|
G|--------------------------------------|  (2x)
D|-0^1^0----0^1^0----0^1^0--------------|
A|-------2--------2--------2-0-------0--|
E|-----------------------------2-1-2----|#/5t2##/5t1#

#6t1##6t2#E|--------------------------------------|
B|-7^8^9----7^8^9----7^8^9--------------|
G|-------8--------8--------8-7-------8--|  (2x)
D|-----------------------------9-7-9----|
A|--------------------------------------|
E|--------------------------------------|#/6t2##/6t1#

#7t1##7t2#E|--------------------------------------|
B|--------------------------------------|
G|--------------------------------------|  (2x)
D|-2^3^2----2^3^2----2^3^2--------------|
A|-------4--------4--------4-2-------2--|
E|-----------------------------4-3-4----|#/7t2##/7t1#

#8t1##8t2#E|--------------------------------------|
B|--------------------------------------|
G|--------------------------------------|  (2x)
D|-0^1^0----0^1^0----0^1^0--------------|
A|-------2--------2--------2-0-------0--|
E|-----------------------------2-1-2----|#/8t2##/8t1#

#9t1##9t2#E|-12------------|
B|-12b-----------|
G|---------------|
D|---------------|
A|---------------|
E|---------------|#/9t2##/9t1#

#10t1#Outro :
#10t2#E|----------------------------|                                                                                                                                                                                                                                                                                                                                                                                                                                                                                                                                B9-----------------9----------|
G|----------------------9-----|
D|-------------------------7--|
A|----------------------------|
E|----------------------------|#/10t2##/10t1#
Composição: Colaboração e revisão: Vitor