The Zephyr Song

Red Hot Chili Peppers

A
234
577655
Am
3
XX7P55X
Am7
134
XX758X
Am9
34
XX7P557
D
234
X57775
Em
123
X754XX
F
134
X875XX
F7M
34
X87P55X
G
234
355433
G7
123
XX546X
G9
1234
XX5435
Tom: G
Introdução: Am7  G7  Em  F
            Am  G  Em  F7M

#1t1#   Am7      G7       Em       F
#1t2#E|------------------------------------------|
B|-----8--------6---------------------------|
G|---5--------4----------4--------5---------|
D|-7--------5----------5--------7-----------|
A|-------------------7--------8-------------|
E|------------------------------------------|#/1t2##/1t1#
#2t1#   Am       G        Em       F7M
#2t2#E|------------------------------------------|
B|-----5--------3-----------------5---------|
G|---5--------4----------4--------5---------|
D|-7--------5----------5--------7-----------|
A|-------------------7--------8-------------|
E|------------------------------------------|#/2t2##/2t1#


Primeira Parte:

#3t1#   Am                G
#3t2#E|------------------------------------------|
B|-----5----8--6--5------3---6-5-3----------|
G|---5---5-------------4---4----------------|
D|-7-----------------5----------------------|
A|------------------------------------------|
E|------------------------------------------|#/3t2##/3t1#
#4t1#   Em                F
#4t2#E|------------------------------------------|
B|------------------------------------------|
G|-----4----7--5--4------5-7/9-7-5-4/5------|
D|---5---5-------------7--------------------|
A|-7-----------------8----------------------|
E|------------------------------------------|#/4t2##/4t1#
#5t1#   Am                G
#5t2#E|-------------5--0-------------------------|
B|-----5----8------------3---6-5-3----------|
G|---5---5-------------4---4----------------|
D|-7-----------------5----------------------|
A|------------------------------------------|
E|------------------------------------------|#/5t2##/5t1#
#6t1#   Em                F
#6t2#E|------------------------------------------|
B|-------------5----------------------------|
G|-----4----7-----5----4-5---4-5------------|
D|---5---5----------------------------------|
A|-7-----------------8-----8----------------|
E|------------------------------------------|#/6t2##/6t1#

Am
   Can I get your hand to write on
G
  Just a piece of leg to bite on
Em
   What a nipe to fly my kite on
 F
Do you want to flash a light on
Am                             G
   Take a look it's on display   

For you
Em                           F
   Coming down, no not today

#7t1#   Am                G
#7t2#E|------------------------------------------|
B|-----5----8--6--5------3---6-5-3----------|
G|---5---5-------------4---4----------------|
D|-7-----------------5----------------------|
A|------------------------------------------|
E|------------------------------------------|#/7t2##/7t1#
#8t1#   Em                F
#8t2#E|------------------------------------------|
B|------------------------------------------|
G|-----4----7--5--4------5-7/9-7-5----------|
D|---5---5-------------7--------------------|
A|-7-----------------8----------------------|
E|------------------------------------------|#/8t2##/8t1#
#9t1#   Am                G
#9t2#E|-------------5--0-------------------------|
B|-----5----8------------3---6-5-3----------|
G|---5---5-------------4---4----------------|
D|-7-----------------5----------------------|
A|------------------------------------------|
E|------------------------------------------|#/9t2##/9t1#
#10t1#   Em                F
#10t2#E|------------------------------------------|
B|-------------5----------------------------|
G|-----4----7-----5----4-5---4-5------------|
D|---5---5----------------------------------|
A|-7-----------------8-----8----------------|
E|------------------------------------------|#/10t2##/10t1#

Am
   Did you meet your fortune teller
G
  Get it off with no propeller
Em
   Do it up it's on with stellar
  F
What a way to finally smell her
Am                               G
   Pickin’ up but not too strong   

For you
Em                             F
   Take a piece and pass it on
 

Primeiro Refrão:

D
  Fly away on my Zephyr
G            A
  I feel it more than ever
D
  And in this perfect weather
G                A
  We’ll find a place together
  Am  G   Em  F
Fly   on my  wind

#11t1#   Am                G
#11t2#E|------------------------------------------|
B|-----5----8--6--5------3---6-5-3----------|
G|---5---5-------------4---4----------------|
D|-7-----------------5----------------------|
A|------------------------------------------|
E|------------------------------------------|#/11t2##/11t1#
#12t1#   Em                F
#12t2#E|------------------------------------------|
B|------------------------------------------|
G|-----4----7--5--4------5-7/9-7-5-4/5------|
D|---5---5-------------7--------------------|
A|-7-----------------8----------------------|
E|------------------------------------------|#/12t2##/12t1#


Segunda Parte:

#13t1#   Am                G
#13t2#E|------------------------------------------|
B|-----5----8--6--5------3---6-5-3-5--------|
G|---5---5-------------4---4----------------|
D|-7-----------------5----------------------|
A|------------------------------------------|
E|------------------------------------------|#/13t2##/13t1#
#14t1#   Em                F
#14t2#E|------------------------------------------|
B|------------------------------------------|
G|-----4----7--5--4------5-7/9-7-5-7/9------|
D|---5---5-------------7--------------------|
A|-7-----------------8----------------------|
E|------------------------------------------|#/14t2##/14t1#
#15t1#   Am                G
#15t2#E|-------------5--0-------------------------|
B|-----5----8------------3---6-5-3----------|
G|---5---5-------------4---4----------------|
D|-7-----------------5----------------------|
A|------------------------------------------|
E|------------------------------------------|#/15t2##/15t1#
#16t1#   Em                F
#16t2#E|------------------------------------------|
B|-------------5----------------------------|
G|-----4----7-----5----4-5---4-5------------|
D|---5---5----------------------------------|
A|-7-----------------8-----8----------------|
E|------------------------------------------|#/16t2##/16t1#

Am
   Rebel and a liberator
G
  Find a way to be a skater
E m
  Rev it up to levitate her
 F
Super friendly aviator
Am                             G
   Take a look it's on display
        Em
For you    comin’ down
             F
No not today


Segundo Refrão:

D
  Fly away on my zephyr
G            A
  I feel it more than ever
D
  And in this perfect weather
G                A
  We’ll find a place together

D
  In the water where 

I center my emotion
G                    A       G  A
  All the world can pass me by
D
  Fly away on my zephyr
G                A
  We’ll find a place together


Solo: 

#17t1##17t2#E|-12--10--12-12~---12----10--12-----------------------|
B|--------------------------------12b13r12--10---------|
G|-----------------------------------------------------|
D|-----------------------------------------------------|
A|-----------------------------------------------------|
E|-----------------------------------------------------|#/17t2##/17t1#

#18t1##18t2#E|-10--8--10-10~---10-x----10--12----------------------|
B|---------------------------------12b13r12--10--------|
G|-----------------------------------------------------|
D|-----------------------------------------------------|
A|-----------------------------------------------------|
E|-----------------------------------------------------|#/18t2##/18t1#

#19t1##19t2#E|-12--10--12-12~---12----10--12-----------------------|
B|--------------------------------12b13r12--10---------|
G|-----------------------------------------------------|
D|-----------------------------------------------------|
A|-----------------------------------------------------|
E|-----------------------------------------------------|#/19t2##/19t1#

#20t1##20t2#E|-10--8--10-10~---10-8----10--x-----------------------|
B|---------------------------------12b13r12--10--5-----|
G|-----------------------------------------------------|
D|-----------------------------------------------------|
A|-----------------------------------------------------|
E|-----------------------------------------------------|#/20t2##/20t1#


Terceira Parte:

Am9
    Whoa, whoa, whoa, whoa
                  G9
Whoa, whoa, whoa,    do you
Em
   Yeah, yeah, yeah, yeah
                 F7M
Yeah, yeah, yeah
Am9
    Whoa, whoa, whoa, whoa
                  G9
Whoa, whoa, whoa,    won't you?
Em
   Yeah, yeah, yeah, yeah
                 F7M
Yeah, yeah, yeah


Terceiro Refrão:

D
  Fly away on my zephyr
G            A
  I feel it more than ever
D
  And in this perfect weather
G                A
  We’ll find a place together
D
  In the water where 

I center my emotion
G                    A       G  A
  All the world can pass me by
D
  Fly away on my zephyr
G           A
  We gonna live forever


Final: D  G  A  (4x)
       G  A  D

(Parte 1)

#21t1#   D
#21t2#E|-14-------14-------14-------14-------14---|
B|-------15-------15-------15-------15----15|
G|----14-------14-------14-------14---------|
D|------------------------------------------|
A|------------------------------------------|
E|------------------------------------------|#/21t2##/21t1#
#22t1#                 G               A
#22t2#E|-----------15--------15--------------17---|
B|--------15--------15----15--------17------|
G|-14--16--------16----------16--18---------|
D|------------------------------------------|
A|------------------------------------------|
E|------------------------------------------|#/22t2##/22t1#

#23t1##23t2#E|-------17---------------------------------|
B|----17------------------------------------|
G|-18---------------------------------------|
D|------------------------------------------|
A|------------------------------------------|
E|------------------------------------------|#/23t2##/23t1#

(Parte 2)

#24t1#   D
#24t2#E|-------14-------14-------14-------14------|
B|----15-------15-------15-------15-------15|
G|-14-------14-------14-------14-------14---|
D|------------------------------------------|
A|------------------------------------------|
E|------------------------------------------|#/24t2##/24t1#
#25t1#          G                        A
#25t2#E|-14-14--------15-------15--------------17-|
B|-----------15-------15----15--------17----|
G|--------16-------16----------16--18-------|
D|------------------------------------------|
A|------------------------------------------|
E|------------------------------------------|#/25t2##/25t1#

#26t1##26t2#E|-------17---------------------------------|
B|----17------------------------------------|
G|-18---------------------------------------|
D|------------------------------------------|
A|------------------------------------------|
E|------------------------------------------|#/26t2##/26t1#

(Parte 3)

#27t1#   D
#27t2#E|-------14-------14-------15-------14------|
B|----15-------15-------15----15-------15---|
G|-14-------14-------14----------14-------14|
D|------------------------------------------|
A|------------------------------------------|
E|------------------------------------------|#/27t2##/27t1#
#28t1#          G                        A
#28t2#E|-14-14--------15-------15--------------17-|
B|-----------15-------15----15--------17----|
G|--------16-------16----------16--18-------|
D|------------------------------------------|
A|------------------------------------------|
E|------------------------------------------|#/28t2##/28t1#

#29t1##29t2#E|-------17---------------------------------|
B|----17------------------------------------|
G|-18---------------------------------------|
D|------------------------------------------|
A|------------------------------------------|
E|------------------------------------------|#/29t2##/29t1#

(Parte 4)

#30t1#   D
#30t2#E|-------14-------14-------15-------14------|
B|----15-------15-------15----15-------15---|
G|-14-------14-------14----------14-------14|
D|------------------------------------------|
A|------------------------------------------|
E|------------------------------------------|#/30t2##/30t1#
#31t1#          G                        A
#31t2#E|-14-14--------15-------15--------17-------|
B|-----------15-------15----15-----17-------|
G|--------16-------16----------16--18-------|
D|------------------------------------------|
A|------------------------------------------|#/31t2##/31t1#

(Parte 5)

#32t1#   G   A   D
#32t2#E|-15--17--17-------------------------------|
B|-15--17--19-------------------------------|
G|-16--18--19-------------------------------|
D|---------0--------------------------------|
A|------------------------------------------|
E|------------------------------------------|#/32t2##/32t1#
Composição: Anthony Kiedis / Chad Smith / Flea / John FruscianteColaboração e revisão: Vinícius DiasBanda NitricPAXECOblankae mais 3
Videoaula The Zephyr Song (guitarra)