busca

The Zephyr Song

Red Hot Chili Peppers

Tom: C
Introdução: Am7  G7  Em  F
            Am  G  Em  F7M

   Am7      G7       Em       F
E|------------------------------------------|
B|-----8--------6---------------------------|
G|---5--------4----------4--------5---------|
D|-7--------5----------5--------7-----------|
A|-------------------7--------8-------------|
E|------------------------------------------|

   Am       G        Em       F7M
E|------------------------------------------|
B|-----5--------3-----------------5---------|
G|---5--------4----------4--------5---------|
D|-7--------5----------5--------7-----------|
A|-------------------7--------8-------------|
E|------------------------------------------|


Primeira Parte:

   Am                G
E|------------------------------------------|
B|-----5----8--6--5------3---6-5-3----------|
G|---5---5-------------4---4----------------|
D|-7-----------------5----------------------|
A|------------------------------------------|
E|------------------------------------------|

   Em                F
E|------------------------------------------|
B|------------------------------------------|
G|-----4----7--5--4------5-7/9-7-5-4/5------|
D|---5---5-------------7--------------------|
A|-7-----------------8----------------------|
E|------------------------------------------|

   Am                G
E|-------------5--0-------------------------|
B|-----5----8------------3---6-5-3----------|
G|---5---5-------------4---4----------------|
D|-7-----------------5----------------------|
A|------------------------------------------|
E|------------------------------------------|

   Em                F
E|------------------------------------------|
B|-------------5----------------------------|
G|-----4----7-----5----4-5---4-5------------|
D|---5---5----------------------------------|
A|-7-----------------8-----8----------------|
E|------------------------------------------|

Am
   Can I get your hand to write on
G
  Just a piece of leg to bite on
Em
   What a nipe to fly my kite on
 F
Do you want to flash a light on
Am                             G
   Take a look it's on display   

For you
Em                           F
   Coming down, no not today

   Am                G
E|------------------------------------------|
B|-----5----8--6--5------3---6-5-3----------|
G|---5---5-------------4---4----------------|
D|-7-----------------5----------------------|
A|------------------------------------------|
E|------------------------------------------|

   Em                F
E|------------------------------------------|
B|------------------------------------------|
G|-----4----7--5--4------5-7/9-7-5----------|
D|---5---5-------------7--------------------|
A|-7-----------------8----------------------|
E|------------------------------------------|

   Am                G
E|-------------5--0-------------------------|
B|-----5----8------------3---6-5-3----------|
G|---5---5-------------4---4----------------|
D|-7-----------------5----------------------|
A|------------------------------------------|
E|------------------------------------------|

   Em                F
E|------------------------------------------|
B|-------------5----------------------------|
G|-----4----7-----5----4-5---4-5------------|
D|---5---5----------------------------------|
A|-7-----------------8-----8----------------|
E|------------------------------------------|

Am
   Did you meet your fortune teller
G
  Get it off with no propeller
Em
   Do it up it's on with stellar
  F
What a way to finally smell her
Am                               G
   Pickin’ up but not too strong   

For you
Em                             F
   Take a piece and pass it on
 

Primeiro Refrão:

D
  Fly away on my Zephyr
G            A
  I feel it more than ever
D
  And in this perfect weather
G                A
  We’ll find a place together
  Am  G   Em  F
Fly   on my  wind

   Am                G
E|------------------------------------------|
B|-----5----8--6--5------3---6-5-3----------|
G|---5---5-------------4---4----------------|
D|-7-----------------5----------------------|
A|------------------------------------------|
E|------------------------------------------|

   Em                F
E|------------------------------------------|
B|------------------------------------------|
G|-----4----7--5--4------5-7/9-7-5-4/5------|
D|---5---5-------------7--------------------|
A|-7-----------------8----------------------|
E|------------------------------------------|


Segunda Parte:

   Am                G
E|------------------------------------------|
B|-----5----8--6--5------3---6-5-3-5--------|
G|---5---5-------------4---4----------------|
D|-7-----------------5----------------------|
A|------------------------------------------|
E|------------------------------------------|

   Em                F
E|------------------------------------------|
B|------------------------------------------|
G|-----4----7--5--4------5-7/9-7-5-7/9------|
D|---5---5-------------7--------------------|
A|-7-----------------8----------------------|
E|------------------------------------------|

   Am                G
E|-------------5--0-------------------------|
B|-----5----8------------3---6-5-3----------|
G|---5---5-------------4---4----------------|
D|-7-----------------5----------------------|
A|------------------------------------------|
E|------------------------------------------|

   Em                F
E|------------------------------------------|
B|-------------5----------------------------|
G|-----4----7-----5----4-5---4-5------------|
D|---5---5----------------------------------|
A|-7-----------------8-----8----------------|
E|------------------------------------------|

Am
   Rebel and a liberator
G
  Find a way to be a skater
E m
  Rev it up to levitate her
 F
Super friendly aviator
Am                             G
   Take a look it's on display
        Em
For you    comin’ down
             F
No not today


Segundo Refrão:

D
  Fly away on my zephyr
G            A
  I feel it more than ever
D
  And in this perfect weather
G                A
  We’ll find a place together

D
  In the water where 

I center my emotion
G                    A       G  A
  All the world can pass me by
D
  Fly away on my zephyr
G                A
  We’ll find a place together


Solo: 

E|-12--10--12-12~---12----10--12-----------------------|
B|--------------------------------12b13r12--10---------|
G|-----------------------------------------------------|
D|-----------------------------------------------------|
A|-----------------------------------------------------|
E|-----------------------------------------------------|

E|-10--8--10-10~---10-x----10--12----------------------|
B|---------------------------------12b13r12--10--------|
G|-----------------------------------------------------|
D|-----------------------------------------------------|
A|-----------------------------------------------------|
E|-----------------------------------------------------|

E|-12--10--12-12~---12----10--12-----------------------|
B|--------------------------------12b13r12--10---------|
G|-----------------------------------------------------|
D|-----------------------------------------------------|
A|-----------------------------------------------------|
E|-----------------------------------------------------|

E|-10--8--10-10~---10-8----10--x-----------------------|
B|---------------------------------12b13r12--10--5-----|
G|-----------------------------------------------------|
D|-----------------------------------------------------|
A|-----------------------------------------------------|
E|-----------------------------------------------------|


Terceira Parte:

Am9
    Whoa, whoa, whoa, whoa
                  G9
Whoa, whoa, whoa,    do you
Em
   Yeah, yeah, yeah, yeah
                 F7M
Yeah, yeah, yeah
Am9
    Whoa, whoa, whoa, whoa
                  G9
Whoa, whoa, whoa,    won't you?
Em
   Yeah, yeah, yeah, yeah
                 F7M
Yeah, yeah, yeah


Terceiro Refrão:

D
  Fly away on my zephyr
G            A
  I feel it more than ever
D
  And in this perfect weather
G                A
  We’ll find a place together
D
  In the water where 

I center my emotion
G                    A       G  A
  All the world can pass me by
D
  Fly away on my zephyr
G           A
  We gonna live forever


Final: D  G  A  (4x)
       G  A  D

(Parte 1)

   D
E|-14-------14-------14-------14-------14---|
B|-------15-------15-------15-------15----15|
G|----14-------14-------14-------14---------|
D|------------------------------------------|
A|------------------------------------------|
E|------------------------------------------|

                 G               A
E|-----------15--------15--------------17---|
B|--------15--------15----15--------17------|
G|-14--16--------16----------16--18---------|
D|------------------------------------------|
A|------------------------------------------|
E|------------------------------------------|

E|-------17---------------------------------|
B|----17------------------------------------|
G|-18---------------------------------------|
D|------------------------------------------|
A|------------------------------------------|
E|------------------------------------------|

(Parte 2)

   D
E|-------14-------14-------14-------14------|
B|----15-------15-------15-------15-------15|
G|-14-------14-------14-------14-------14---|
D|------------------------------------------|
A|------------------------------------------|
E|------------------------------------------|

          G                        A
E|-14-14--------15-------15--------------17-|
B|-----------15-------15----15--------17----|
G|--------16-------16----------16--18-------|
D|------------------------------------------|
A|------------------------------------------|
E|------------------------------------------|

E|-------17---------------------------------|
B|----17------------------------------------|
G|-18---------------------------------------|
D|------------------------------------------|
A|------------------------------------------|
E|------------------------------------------|

(Parte 3)

   D
E|-------14-------14-------15-------14------|
B|----15-------15-------15----15-------15---|
G|-14-------14-------14----------14-------14|
D|------------------------------------------|
A|------------------------------------------|
E|------------------------------------------|

          G                        A
E|-14-14--------15-------15--------------17-|
B|-----------15-------15----15--------17----|
G|--------16-------16----------16--18-------|
D|------------------------------------------|
A|------------------------------------------|
E|------------------------------------------|

E|-------17---------------------------------|
B|----17------------------------------------|
G|-18---------------------------------------|
D|------------------------------------------|
A|------------------------------------------|
E|------------------------------------------|

(Parte 4)

   D
E|-------14-------14-------15-------14------|
B|----15-------15-------15----15-------15---|
G|-14-------14-------14----------14-------14|
D|------------------------------------------|
A|------------------------------------------|
E|------------------------------------------|

          G                        A
E|-14-14--------15-------15--------17-------|
B|-----------15-------15----15-----17-------|
G|--------16-------16----------16--18-------|
D|------------------------------------------|
A|------------------------------------------|

(Parte 5)

   G   A   D
E|-15--17--17-------------------------------|
B|-15--17--19-------------------------------|
G|-16--18--19-------------------------------|
D|---------0--------------------------------|
A|------------------------------------------|
E|------------------------------------------|

Clipes