busca

This Ticonderoga

Red Hot Chili Peppers

Tom: Cm
[Intro]

E|---------------------------------------------------------------|
B|---------------------------------------------------------------|
G|5-5-5-x-5-5-5-x-5-5-5-x-5-5-5-x-3-3-3-x-3-3-3-x-5-5-5-x-5-5-5-x|
D|5-5-5-x-5-5-5-x-5-5-5-x-5-5-5-x-3-3-3-x-3-3-3-x-5-5-5-x-5-5-5-x|
A|3-3-3-x-3-3-3-x-3-3-3-x-3-3-3-x-1-1-1-x-1-1-1-x-3-3-3-x-3-3-3-x|
E|---------------------------------------------------------------|


[Verse]

E|---------------------------------------------------------------|
B|---------------------------------------------------------------|
G|5-5-5-x-5-5-5-x-5-5-5-x-5-5-5-x-3-3-3-x-3-3-3-x-5-5-5-x-5-5-5-x|
D|5-5-5-x-5-5-5-x-5-5-5-x-5-5-5-x-3-3-3-x-3-3-3-x-5-5-5-x-5-5-5-x|
A|3-3-3-x-3-3-3-x-3-3-3-x-3-3-3-x-1-1-1-x-1-1-1-x-3-3-3-x-3-3-3-x|
E|---------------------------------------------------------------|

E|---------------------------------------------------------------|
B|---------------------------------------------------------------|
G|5-5-5-x-5-5-5-x-5-5-5-x-5-5-5-x-3-3-3-x-3-3-3-x-5-5-5-x-5-5-5-x|
D|5-5-5-x-5-5-5-x-5-5-5-x-5-5-5-x-3-3-3-x-3-3-3-x-5-5-5-x-5-5-5-x|
A|3-3-3-x-3-3-3-x-3-3-3-x-3-3-3-x-1-1-1-x-1-1-1-x-3-3-3-x-3-3-3-x|
E|---------------------------------------------------------------|


[Chorus]

E|----------------------------------------|
B|----------------------------------------|
G|8-8-8-x-8-8-8-x---------5-5-5-x-5-5-5-x-|
D|8-8-8-x-8-8-8-x-8-8-8-x-5-5-5-x-5-5-5-x-|
A|6-6-6-x-6-6-6-x-8-8-8-x-3-3-3-x-3-3-3-x-|
E|----------------6-6-6-x-----------------|


E|----------------------------------------|
B|----------------------------------------|
G|8-8-8-x-8-8-8-x---------5-5-5-x-5-5-5-x-|
D|8-8-8-x-8-8-8-x-8-8-8-x-5-5-5-x-5-5-5-x-|
A|6-6-6-x-6-6-6-x-8-8-8-x-3-3-3-x-3-3-3-x-|
E|----------------6-6-6-x-----------------|


[Verse]

E|---------------------------------------------------------------|
B|----(7^)-----(7^)----------------------------------------------|
G|5-5-5-x-5-5-5-x-5-5-5-x-5-5-5-x-3-3-3-x-3-3-3-x-5-5-5-x-5-5-5-x|
D|5-5-5-x-5-5-5-x-5-5-5-x-5-5-5-x-3-3-3-x-3-3-3-x-5-5-5-x-5-5-5-x|
A|3-3-3-x-3-3-3-x-3-3-3-x-3-3-3-x-1-1-1-x-1-1-1-x-3-3-3-x-3-3-3-x|
E|---------------------------------------------------------------|

E|---------------------------------------------------------------|
B|---------------------------------------------------------------|
G|5-5-5-x-5-5-5-x-5-5-5-x-5-5-5-x-3-3-3-x-3-3-3-x-5-5-5-x-5-5-5-x|
D|5-5-5-x-5-5-5-x-5-5-5-x-5-5-5-x-3-3-3-x-3-3-3-x-5-5-5-x-5-5-5-x|
A|3-3-3-x-3-3-3-x-3-3-3-x-3-3-3-x-1-1-1-x-1-1-1-x-3-3-3-x-3-3-3-x|
E|---------------------------------------------------------------|


E|----------------------------------------|
B|----------------------------------------|
G|8-8-8-x-8-8-8-x---------5-5-5-x-5-5-5-x-|
D|8-8-8-x-8-8-8-x-8-8-8-x-5-5-5-x-5-5-5-x-|
A|6-6-6-x-6-6-6-x-8-8-8-x-3-3-3-x-3-3-3-x-|
E|----------------6-6-6-x-----------------|


E|----------------------------------------|
B|----------------------------------------|
G|8-8-8-x-8-8-8-x---------5-5-5-x-5-5-5-x-|
D|8-8-8-x-8-8-8-x-8-8-8-x-5-5-5-x-5-5-5-x-|
A|6-6-6-x-6-6-6-x-8-8-8-x-3-3-3-x-3-3-3-x-|
E|----------------6-6-6-x-----------------|


[Breakdown]

e|13~~~----------------8----------------8---------7--8-11/12-12/|
B|---------9-11-11/12------9-11-11//12---------9----------------|
G|------10---------------10----------------10-------------------|
D|--------------------------------------------------------------|
A|--------------------------------------------------------------|
E|--------------------------------------------------------------|


e|13~~~----------------8----------------8------------7-8-11/12-12-/13-------------|
B|---------9-11-11/12------9-11-11//12---------9-11------------------12-8h9p8----8|
G|------10---------------10----------------10---------------------------------10--|
D|--------------------------------------------------------------------------------|
A|--------------------------------------------------------------------------------|
E|--------------------------------------------------------------------------------|


[Verse]

E|---------------------------------------------------------------|
B|---------------------------------------------------------------|
G|5-5-5-x-5-5-5-x-5-5-5-x-5-5-5-x-3-3-3-x-3-3-3-x-5-5-5-x-5-5-5-x|
D|5-5-5-x-5-5-5-x-5-5-5-x-5-5-5-x-3-3-3-x-3-3-3-x-5-5-5-x-5-5-5-x|
A|3-3-3-x-3-3-3-x-3-3-3-x-3-3-3-x-1-1-1-x-1-1-1-x-3-3-3-x-3-3-3-x|
E|---------------------------------------------------------------|

E|---------------------------------------------------------------|
B|---------------------------------------------------------------|
G|5-5-5-x-5-5-5-x-5-5-5-x-5-5-5-x-3-3-3-x-3-3-3-x-5-5-5-x-5-5-5-x|
D|5-5-5-x-5-5-5-x-5-5-5-x-5-5-5-x-3-3-3-x-3-3-3-x-5-5-5-x-5-5-5-x|
A|3-3-3-x-3-3-3-x-3-3-3-x-3-3-3-x-1-1-1-x-1-1-1-x-3-3-3-x-3-3-3-x|
E|---------------------------------------------------------------|


[Chorus]

E|----------------------------------------|
B|----------------------------------------|
G|8-8-8-x-8-8-8-x---------5-5-5-x-5-5-5-x-|
D|8-8-8-x-8-8-8-x-8-8-8-x-5-5-5-x-5-5-5-x-|
A|6-6-6-x-6-6-6-x-8-8-8-x-3-3-3-x-3-3-3-x-|
E|----------------6-6-6-x-----------------|


E|----------------------------------------|
B|----------------------------------------|
G|8-8-8-x-8-8-8-x---------5-5-5-x-5-5-5-x-|
D|8-8-8-x-8-8-8-x-8-8-8-x-5-5-5-x-5-5-5-x-|
A|6-6-6-x-6-6-6-x-8-8-8-x-3-3-3-x-3-3-3-x-|
E|----------------6-6-6-x-----------------|


[Breakdown]

e|13~~~----------------8----------------8---------7--8-11/12-12/|
B|---------9-11-11/12------9-11-11//12---------9----------------|
G|------10---------------10----------------10-------------------|
D|--------------------------------------------------------------|
A|--------------------------------------------------------------|
E|--------------------------------------------------------------|

e|13~~~----------------8----------------8------11\7|
B|---------9-11-11/12------9-11-11//12-------------|
G|------10---------------10------------------------|
D|-------------------------------------------------|
A|-------------------------------------------------|
E|-------------------------------------------------|

e|13~~~----------------8----------------8---------7--8-11/12-12/|
B|---------9-11-11/12------9-11-11//12---------9----------------|
G|------10---------------10----------------10-------------------|
D|--------------------------------------------------------------|
A|--------------------------------------------------------------|
E|--------------------------------------------------------------|


e|13~~~----------------8----------------8------11\7|
B|---------9-11-11/12------9-11-11//12-------------|
G|------10---------------10------------------------|
D|-------------------------------------------------|
A|-------------------------------------------------|
E|-------------------------------------------------|


E|-----------------------------------------|
B|8h9p8--8---------------------------------|
G|-----10---7h8p7\5h7----------------------|
D|--------------------5-6-5-3-5-3-1-3-1-0--|
A|----------------------------------------3|
E|-----------------------------------------|


[Verse]

E|---------------------------------------------------------------|
B|---------------------------------------------------------------|
G|5-5-5-x-5-5-5-x-5-5-5-x-5-5-5-x-3-3-3-x-3-3-3-x-5-5-5-x-5-5-5-x|
D|5-5-5-x-5-5-5-x-5-5-5-x-5-5-5-x-3-3-3-x-3-3-3-x-5-5-5-x-5-5-5-x|
A|3-3-3-x-3-3-3-x-3-3-3-x-3-3-3-x-1-1-1-x-1-1-1-x-3-3-3-x-3-3-3-x|
E|---------------------------------------------------------------|

E|---------------------------------------------------------------|
B|---------------------------------------------------------------|
G|5-5-5-x-5-5-5-x-5-5-5-x-5-5-5-x-3-3-3-x-3-3-3-x-5-5-5-x-5-5-5-x|
D|5-5-5-x-5-5-5-x-5-5-5-x-5-5-5-x-3-3-3-x-3-3-3-x-5-5-5-x-5-5-5-x|
A|3-3-3-x-3-3-3-x-3-3-3-x-3-3-3-x-1-1-1-x-1-1-1-x-3-3-3-x-3-3-3-x|
E|---------------------------------------------------------------|


[Chorus]

E|----------------------------------------|
B|----------------------------------------|
G|8-8-8-x-8-8-8-x---------5-5-5-x-5-5-5-x-|
D|8-8-8-x-8-8-8-x-8-8-8-x-5-5-5-x-5-5-5-x-|
A|6-6-6-x-6-6-6-x-8-8-8-x-3-3-3-x-3-3-3-x-|
E|----------------6-6-6-x-----------------|


E|----------------------------------------|
B|----------------------------------------|
G|8-8-8-x-8-8-8-x---------5-5-5-x-5-5-5-x-|
D|8-8-8-x-8-8-8-x-8-8-8-x-5-5-5-x-5-5-5-x-|
A|6-6-6-x-6-6-6-x-8-8-8-x-3-3-3-x-3-3-3-x-|
E|----------------6-6-6-x-----------------|


E|---------------------------------------------------------------|
B|---------------------------------------------------------------|
G|5-5-5-x-5-5-5-x-5-5-5-x-5-5-5-x-3-3-3-x-3-3-3-x-5-5-5-x-5-5-5-x|
D|5-5-5-x-5-5-5-x-5-5-5-x-5-5-5-x-3-3-3-x-3-3-3-x-5-5-5-x-5-5-5-x|
A|3-3-3-x-3-3-3-x-3-3-3-x-3-3-3-x-1-1-1-x-1-1-1-x-3-3-3-x-3-3-3-x|
E|---------------------------------------------------------------|

E|---------------------------------------------------------------|
B|---------------------------------------------------------------|
G|5-5-5-x-5-5-5-x-5-5-5-x-5-5-5-x-3-3-3-x-3-3-3-x-5-5-5-x-5-5-5-x|
D|5-5-5-x-5-5-5-x-5-5-5-x-5-5-5-x-3-3-3-x-3-3-3-x-5-5-5-x-5-5-5-x|
A|3-3-3-x-3-3-3-x-3-3-3-x-3-3-3-x-1-1-1-x-1-1-1-x-3-3-3-x-3-3-3-x|
E|---------------------------------------------------------------|


E|---------------------------------------------------------------|
B|----(7^)-----(7^)--------(7^)----------------------------------|
G|5-5-5-x-5-5-5-x-5-5-5-x-5-5-5-x-3-3-3-x-3-3-3-x-5-5-5-x-5-5-5-x|
D|5-5-5-x-5-5-5-x-5-5-5-x-5-5-5-x-3-3-3-x-3-3-3-x-5-5-5-x-5-5-5-x|
A|3-3-3-x-3-3-3-x-3-3-3-x-3-3-3-x-1-1-1-x-1-1-1-x-3-3-3-x-3-3-3-x|
E|---------------------------------------------------------------|

E|---------------------------------------------------------------|
B|---------------------------------------------------------------|
G|5-5-5-x-5-5-5-x-5-5-5-x-5-5-5-x-3-3-3-x-3-3-3-x-5-5-5-x-5-5-5-x|
D|5-5-5-x-5-5-5-x-5-5-5-x-5-5-5-x-3-3-3-x-3-3-3-x-5-5-5-x-5-5-5-x|
A|3-3-3-x-3-3-3-x-3-3-3-x-3-3-3-x-1-1-1-x-1-1-1-x-3-3-3-x-3-3-3-x|
E|---------------------------------------------------------------|

Clipes