busca

Torture Me

Red Hot Chili Peppers

Tom: F#
[Intro] Bbm  F#  Bbm  F# 
        Bbm  F#  Bbm  F#

  Bbm  F#
E|-9---11-x--|
B|-11--11-13-|
G|-10--11-11-|
D|-8---x--x--|
A|-8---9--9--|
E|-----------|

Bbm
Because I'm happy to be sad 
 
I wan't it all want it bad 
 F# Bbm                     F#
Oh-   oh      it's what I know 
Bbm
A vintage year for pop I hear 
                          F#
The middle of the end is near 

E|------------|
B|------------|
G|-11/13--13--|
D|-x------x---|
A|-9/11---11--|
E|------------|

[Refrão]

E|----------------------------------------------------------|
B|---------6-------------------------------6----------------|
G|-----------6---6----6--8/10\8----6---------6---6---6------|
D|--6/8--8-----8-----------------8---8--8------8------------|
A|-----------------9-------------------------------9---6b-6-|
E|----------------------------------------------------------|

Bbm              C#
Torture me and torture me 
       F#           Ebm
It's forcin' me so torture me  
Bbm               C#
Torture me with sorcery 
       F#            Ebm
It's forcin' me so torture me 
Bbm  F# (2x) 

Bbm
All the leaves are turning brown 
 
The wind is pushing me aroud 
       F#  Bbm                    F#
Let's go--          It's what I know 
 
[Refrão]

E|----------------------------------------------------------|
B|---------6-------------------------------6----------------|
G|-----------6---6----6--8/10\8----6---------6---6---6------|
D|--6/8--8-----8-----------------8---8--8------8------------|
A|-----------------9-------------------------------9---6b-6-|
E|----------------------------------------------------------|

( C#  Ebm )

C#
The will of God is standing still 
 
Brazilian children get their fill 
      Ebm
Let's go
C#
Let's turn it up abd dumb it down 
 
The vision of your ultra sound 
   Ebm
Is so... 
C#
A vintage year for pop I hear 
 
The middle of the end near 
      Ebm
It's soo  
 
( Bbm  F#  Bbm  F# )

[Solo]

E|------------------------------------------------------------|
B|------------------------------------------------------------|
G|--------------------------------------------13-15b-15-------|
D|-------------------11-13-13/15-15-15-15-15------------13/15-|
A|-11-13-13-13-13-13------------------------------------------|
E|------------------------------------------------------------|

E|------------------------------------------------------------|
B|------------------------------------------------------------|
G|-13-15b-15-15p13----15p13----15p13----15p13-------13-15-----|
D|-----------------15-------15-------15-------15-15-----------|
A|------------------------------------------------------------|
E|------------------------------------------------------------|

E|-----------------------------16---------------------16------|
B|-16b-16b-16b-16b14----14-16b----16b-16-14----14-16b---------|
G|-------------------15---------------------15----------------|
D|------------------------------------------------------------|
A|------------------------------------------------------------|
E|------------------------------------------------------------|

E|------------------------------------------------------------|
B|-16b-16-14----14-16----16-14-----------14-16----------------|
G|-----------15----------------15--13-15----------------------|
D|------------------------------------------------------------|
A|------------------------------------------------------------|
E|------------------------------------------------------------|

E|------------------------------------------------------------|
B|-16-16-16-14----16-16-16-14----16-16-16-14------------------|
G|-------------15-------------15-------------15--13h15--------|
D|------------------------------------------------------------|
A|------------------------------------------------------------|
E|------------------------------------------------------------|

E|------------------------------------------------------------|
B|------------------------------------------------------------|
G|-13-15-15b--13-15-15b-13-15-15b--13h15p13-------------------|
D|------------------------------------------15----------------|
A|------------------------------------------------------------|
E|------------------------------------------------------------|

E|------------------------------16-18-18b-18--------16-18b-18-|
B|------------------16-16-16/18---------------16/18-----------|
G|-13h15p13----(7x)-------------------------------------------|
D|----------15------------------------------------------------|
A|------------------------------------------------------------|
E|------------------------------------------------------------|

Clipes

Cifra Club Pro

Aproveite o Cifra Club com benefícios exclusivos e sem anúncios
7 dias grátis
Cifra Club Pro
Aproveite o Cifra Club com benefícios exclusivos e sem anúncios
7 dias grátis