busca

Under The Bridge

Red Hot Chili Peppers

Tom: C#m
[Intro] D  F#  D  F# 
        D  F#  D  F# 

Parte 1 de 6

   D                       F#
E|-----------------------------------------|
B|----------3------------------------------|
G|-----2------2---------------------3------|
D|---4----4----------------------4------4--|
A|-5-------------4--2----------4---4-------|
E|--------------------5-4--2---------------|

Parte 2 de 6

              D
E|-----------------------------------------|
B|------------------------3-----3/5--5-----|
G|-------------------2-------2--2/4--4-----|
D|-4--2---------4-------4------------------|
A|------5--2--5---5------------------------|
E|-----------------------------------------|

Parte 3 de 6

   F#                     D
E|-----------------------------------------|
B|----------------------------------3------|
G|---------3--------------------2-----2----|
D|-----4-----4--4--2--------4-----4--------|
A|---4---4-----------5--2-5---5------------|
E|-2---------------------------------------|

Parte 4 de 6

            F#
E|-----------------------------------------|
B|-----------------------------------------|
G|------------------3----------------------|
D|--------------4-----4--------------------|
A|-4--2-------4---4------------------------|
E|------5-4-2------------------------------|

Parte 5 de 6

              D
E|-----------------------------------------|
B|------------------------3-----3/5--5-----|
G|-------------------2-------2--2/4--4-----|
D|-4--2---------4-------4------------------|
A|------5--2--5---5------------------------|
E|-----------------------------------------|

Parte 6 de 6

   F#
E|-----------------------------------------|
B|-----------------------------------------|
G|---------3-------------------------------|
D|-----4-----4-----------------------------|
A|---4---4------4--------------------------|
E|-2---------------------------------------|

[Primeira Parte]

Parte 1 de 5

  E     B             C#m     G#m A
E|----------------------------------5h7p5--|
B|9--9--7----------------9-----4--5-------5|
G|9--9--8---8h9p8--------9-----4--6--------|
D|9--9--9-9-------9-9/11---11--6--7--------|
A|7--7-------------------------------------|
E|-----------------------------------------|

Parte 2 de 5

   E           B             C#m     G#m A
E|-----------------------------------------|
B|-------9-----7----------------9-----4--5-|
G|-------9-----8---8h9p8--------9-----4--6-|
D|-------9-----9-9-------9-9/11---11--6--7-|
A|-9/11----11------------------------------|
E|-----------------------------------------|

Parte 3 de 5

            E     B             C#m
E|-----------------------------------------|
B|5--5--5---9--9--7----7h9p7--------9------|
G|6--6--6---9--9--8----------8------9------|
D|7--7--7---9--9--9-9----------9/11----11--|
A|----------7--7---------------------------|
E|-----------------------------------------|

Parte 4 de 5

  G#m A
E|------5h7p5------------------------------|
B|-4--5-------5----------------------------|
G|-4--6------------------------------------|
D|-6--7------------------------------------|
A|-----------------------------------------|
E|-----------------------------------------|

Parte 5 de 5

   E           B            C#m       A  E7M
E|-----------------------------------------|
B|-------9-----7----------------9-----5--9-|
G|-------9-----8---8h9p8--------9-----6--8-|
D|-------9-----9-9-------9-9/11---11--7--9-|
A|-9/11----11----------------------------7-|
E|-----------------------------------------|

E           B
  Sometimes I feel
        C#m          G#m A
Like I don't have a partner
E           B
  Sometimes I feel
      C#m      A            E      B
Like my only friend is the city I live in
     C#m    G#m A
The city of an_gels
 E        B
Lonely as I am
   C#m        A  E7M
Together we cry

E                   B
  I drive on her streets
         C#m        G#m  A
'Cause shes' my compa__nion
   E                B
I walk through her hills
             C#m       A
'Cause she knows who I am
     E            B
She sees my good deeds
         C#m       G#m A
And she kisses me win_dy
E        B
I never worry
      C#m      A  E7M
Now that is a lie

[Refrão]

  F#m         E           B
I don't ever want to feel
        F#m
Like I did that day
                     E      B
Take me to the place I love
      F#m
Take me all the way

  F#m         E           B
I don't ever want to feel
        F#m
Like I did that day
                     E      B
Take me to the place I love
      F#m
Take me all the way

( E  B  C#m  G#m  A )

Parte 1 de 3

   E      B
E|-----------------------------------------|
B|-9--10--7--9p7---7--9p7--7--7------------|
G|-9--9---8--8-----8--8----8--8------------|
D|-9--9---9--9-----9--9----9--9------------|
A|-7--7------------------------------------|
E|-----------------------------------------|
   ↓  ↑   ↓  ↑     ↑  ↓    ↓  ↑


Parte 2 de 3

    C#m      G#m A              E
E|-------------------5h7p5-----------------|
B|------9-----4--5---------5--------9----9-|
G|------9-----4--6------------------9----9-|
D|9/11----11--6--7------------------9----9-|
A|----------------------------9/11----11---|
E|-----------------------------------------|

Parte 3 de 3

   B              C#m           A
E|-----------------------------------------|
B|-7----------------------------5----------|
G|-8----8h9p8---------9--11b13--6----------|
D|-9--9-------9--9/11-----------7----------|
A|-----------------------------------------|
E|-----------------------------------------|

[Segunda Parte]

Parte 1 de 6

   E           B               C#m      G#m
E|-----------------------------------------|
B|-9--9--9--9--7------------------9-----4--|
G|-9--9--9--9--8----8h9p8---------9-----4--|
D|-9--9--9--9--9--9-------9--9/11---11--6--|
A|-7--7--7--7------------------------------|
E|-----------------------------------------|
   ↓  ↑  ↓  ↑   ↓


Parte 2 de 6

   A             E        B           C#m
E|----5h7p5------------------7h9-7---------|
B|-5--------5-------9-----7--7---7---------|
G|-6----------------9-----8----------------|
D|-7----------------9-----9---------9-9/11-|
A|-------------9/11---11-------------------|
E|-----------------------------------------|

Parte 3 de 6

        A
E|---------7p5---7p5-----------------------|
B|9-----5------5-----5---------------------|
G|9-----6----------------------------------|
D|--11--7----------------------------------|
A|-----------------------------------------|
E|-----------------------------------------|

Parte 4 de 6

   E           B             C#m     G#m A
E|-----------------------------------------|
B|-------9-----7----------------9-----4--5-|
G|-------9-----8---8h9p8--------9-----4--6-|
D|-------9-----9-9-------9-9/11---11--6--7-|
A|-9/11----11------------------------------|
E|-----------------------------------------|

Parte 5 de 6

           E       B             C#m      A
E|5h7p5------------------------------------|
B|------5-----9----7----------------9-----5|
G|------------9----8---8h9p8--------9-----6|
D|------------9----9-9-------9-9/11---11--7|
A|-------9/11---11-------------------------|
E|-----------------------------------------|

      E         B
It's hard to believe
                C#m  G#m   A
That there's nobody  out there
       E         B
 It's hard to believe
         C#m   A
That I'm all alone
    E            B
At least I have her love
     C#m      G#m   A
The city she loves me
 E        B
Lonely as I am
   C#m        A  E7M
Together we cry

[Refrão]

  F#m         E           B
I don't ever want to feel
        F#m
Like I did that day
                     E      B
Take me to the place I love
      F#m
Take me all the way

  F#m         E           B
I don't ever want to feel
        F#m
Like I did that day
                     E      B
Take me to the place I love
      F#m
Take me all the way

( A9  Am9  G6  F7M(11+) )
( A9  Am9  G6  F7M(11+) )
( A9  Am9  G6  F7M(11+) )
( F7M  E7 G7M )

[Ponte]

A9                Am9
Under the bridge downtown
G6             F7M(11+)
  Is where I drew some blood
A9                Am9
Under the bridge downtown
G6         F7M(11+)
  I could not get enough
A9                Am9
Under the bridge downtown
G6       F7M(11+)
  Forget about my love
A9                Am9
Under the bridge downtown
G6        F7M(11+)     
  I gave my life away

[Final] A9  Am9  G6  F7M(11+)

Clipes

Cifra Club Pro

Aproveite o Cifra Club com benefícios exclusivos e sem anúncios
7 dias grátis
Cifra Club Pro
Aproveite o Cifra Club com benefícios exclusivos e sem anúncios
7 dias grátis