busca

Victorian Machinery

Red Hot Chili Peppers

Tom: G
Intro

Gtr.1 distorção
E|-----------------------------------------------------------|
B|-----------------------------------------------------------|
G|-7--7--7-7-12-9/10-10-10---10--10-10-10--13-13/12--12-12---|x2
D|-7--7--7-7-x--x----x--x----x---x--x--x---x--x--x---x--x----|
A|-5--5--5-5-10-7/8--8--8----8---8--8--8---11-11/10--10-10---|
E|-----------------------------------------------------------|

Gtr. 1 
Verso:
|-----------------------------------------------------------|
|-----------------------------------------------------------|
|-7--7--7-7-12-9/10-10-10---10--10-10-10--13-13/12--12-12---|x4
|-7--7--7-7-x--x----x--x----x---x--x--x---x--x--x---x--x----|
|-5--5--5-5-10-7/8--8--8----8---8--8--8---11-11/10--10-10---|
|-----------------------------------------------------------|

Refrão:

Gtr.2- Limpo

|---------------------------------------------------13-------|
|-------13-------13-----------13-------13--------15----15----|
|----14-------14----14-----12-------12----12--14----------14-|
|-15-------15-----------14-------14--------------------------|
|------------------------------------------------------------|
|------------------------------------------------------------|

|--13h15-13-12------------------|
|--------------15-13------------|
|---------------------14-12/10--|
|-------------------------------|
|-------------------------------|
|-------------------------------|

|----------------------------------------------|
|-12-------12-------12--11-------11-------11---|
|----10-------10-----------10-------10---------|
|-------10-------10-----------10-------10------|
|----------------------------------------------|
|----------------------------------------------|

|------------------------------------------------|
|-------10-------10-------10------10--------10---|
|----10-------10-------10-------10-------10------|
|-12-------12-------12-------12-------12---------|
|------------------------------------------------|
|------------------------------------------------|

|---------------------------------------------------13-------|
|-------13-------13-----------13-------13--------15----15----|
|----14-------14----14-----12-------12----12--14----------14-|
|-15-------15-----------14-------14--------------------------|
|------------------------------------------------------------|
|------------------------------------------------------------|

|--13h15-13-12------------------|
|--------------15-13------------|
|---------------------14-12/10--|
|-------------------------------|
|-------------------------------|
|-------------------------------|

|----------------------------------------------|
|-12-------12-------12--11-------11-------11---|
|----10-------10-----------10-------10---------|
|-------10-------10-----------10-------10------|
|----------------------------------------------|
|----------------------------------------------|

|------------------------------------------------|
|-------10-------10-------10------10--------10---|
|----10-------10-------10-------10-------10------|
|-12-------12-------12-------12-------12---------|
|------------------------------------------------|
|------------------------------------------------|

Volta para o verso :

Gtr.1 distorção

|-----------------------------------------------------------|
|-----------------------------------------------------------|
|-7--7--7-7-12-9/10-10-10---10--10-10-10--13-13/12--12-12---|x2
|-7--7--7-7-x--x----x--x----x---x--x--x---x--x--x---x--x----|
|-5--5--5-5-10-7/8--8--8----8---8--8--8---11-11/10--10-10---|
|-----------------------------------------------------------|

Gtr.3-distorção

|-------------------------------------------------------------|
|-------------------------------------------------------------|
|-5b--10b-10b~--10-9-10--10-9-10---12-14-12-14-12-14-12-14-12-|
|-------------------------------------------------------------|
|-------------------------------------------------------------|
|-------------------------------------------------------------|

|----------------------------------------------------------------|
|----------------------------------------------------------------|
|-5b--10b-10b~--10-9-10--10-9-10---12-14-12-14-12-14-12-14-12--7-|
|----------------------------------------------------------------|
|----------------------------------------------------------------|
|----------------------------------------------------------------|

Gtr.1

|-----------------------------------------------------------|
|-----------------------------------------------------------|
|-7--7--7-7-12-9/10-10-10---10--10-10-10--13-13/12--12-12---|x4
|-7--7--7-7-x--x----x--x----x---x--x--x---x--x--x---x--x----|
|-5--5--5-5-10-7/8--8--8----8---8--8--8---11-11/10--10-10---|
|-----------------------------------------------------------|

Gtr.3

|---------------------------------------16-15-13-----|
|-------------------------15b--15r--13-----------15--|
|-12b--10h12p10--12b-10------------------------------|
|----------------------------------------------------|
|----------------------------------------------------|
|----------------------------------------------------|

|--------------------------------------------|
|-15b---15r--13---------13-------------------|
|----------------12/14------12b-10-12-10b----|
|--------------------------------------------|
|--------------------------------------------|
|--------------------------------------------|

Volta para o refrão:

Gtr.2- Limpo

|---------------------------------------------------13-------|
|-------13-------13-----------13-------13--------15----15----|
|----14-------14----14-----12-------12----12--14----------14-|
|-15-------15-----------14-------14--------------------------|
|------------------------------------------------------------|
|------------------------------------------------------------|

|--13h15-13-12------------------|
|--------------15-13------------|
|---------------------14-12/10--|
|-------------------------------|
|-------------------------------|
|-------------------------------|

|----------------------------------------------|
|-12-------12-------12--11-------11-------11---|
|----10-------10-----------10-------10---------|
|-------10-------10-----------10-------10------|
|----------------------------------------------|
|----------------------------------------------|

|------------------------------------------------|
|-------10-------10-------10------10--------10---|
|----10-------10-------10-------10-------10------|
|-12-------12-------12-------12-------12---------|
|------------------------------------------------|
|------------------------------------------------|

|---------------------------------------------------13-------|
|-------13-------13-----------13-------13--------15----15----|
|----14-------14----14-----12-------12----12--14----------14-|
|-15-------15-----------14-------14--------------------------|
|------------------------------------------------------------|
|------------------------------------------------------------|

|--13h15-13-12------------------|
|--------------15-13------------|
|---------------------14-12/10--|
|-------------------------------|
|-------------------------------|
|-------------------------------|

|----------------------------------------------|
|-12-------12-------12--11-------11-------11---|
|----10-------10-----------10-------10---------|
|-------10-------10-----------10-------10------|
|----------------------------------------------|
|----------------------------------------------|

|------------------------------------------------|
|-------10-------10-------10------10--------10---|
|----10-------10-------10-------10-------10------|x2
|-12-------12-------12-------12-------12---------|
|------------------------------------------------|
|------------------------------------------------|

Volta para o verso :


Gtr.1-distorção
|-----------------------------------------------------------|
|-----------------------------------------------------------|
|-7--7--7-7-12-9/10-10-10---10--10-10-10--13-13/12--12-12---|x8
|-7--7--7-7-x--x----x--x----x---x--x--x---x--x--x---x--x----|
|-5--5--5-5-10-7/8--8--8----8---8--8--8---11-11/10--10-10---|
|-----------------------------------------------------------|

Gtr.3-distorção

|---------------------------|
|---------------------------|
|-5b--10b-9b---9b--12b-10b--|x3
|---------------------------|
|---------------------------|
|---------------------------|

Na quarta vez toque:

|--------------------------------------|
|--------------------------------------|
|-5b--10b-9b---9b--12b-10b---12b--10b--|
|--------------------------------------|
|--------------------------------------|
|--------------------------------------|

Então novamente :
|---------------------------|
|---------------------------|
|-5b--10b-9b---9b--12b-10b--|x2
|---------------------------|
|---------------------------|
|---------------------------|

Em seguida, ele para.

distorção -Gtr.4

(Ele começa a tocar, enquanto a guitarra 3 está fazendo a sua parte na última vez
|--------------------------------------|
|--------------------------------------|
|-12h14p12h14p12h14p12h14p12h14p12h14--|
|--------------------------------------|
|--------------------------------------|
|--------------------------------------|

|-----13-15b----15br-13------13-15b--15b--15br-13--|
|-15--------------------15-------------------------|
|--------------------------------------------------|
|--------------------------------------------------|
|--------------------------------------------------|
|--------------------------------------------------|

|-13br-20b--13br-15b-13b--|
|-------------------------|
|-------------------------|
|-------------------------|
|-------------------------|
|-------------------------|

Em seguida, Refrão:

Gtr.2- Limpa

|---------------------------------------------------13-------|
|-------13-------13-----------13-------13--------15----15----|
|----14-------14----14-----12-------12----12--14----------14-|
|-15-------15-----------14-------14--------------------------|
|------------------------------------------------------------|
|------------------------------------------------------------|

|--13h15-13-12------------------|
|--------------15-13------------|
|---------------------14-12/10--|
|-------------------------------|
|-------------------------------|
|-------------------------------|

E acaba assim :

|-----------------------13----13-------10--------|
|-12-------12----12--11----11----11----10--------|
|----10--------------------------------10--------|
|-------10----10-----------------------12--------|
|------------------------------------------------|
|------------------------------------------------|

Clipes

Cifra Club Pro

Aproveite o Cifra Club com benefícios exclusivos e sem anúncios
7 dias grátis
Cifra Club Pro
Aproveite o Cifra Club com benefícios exclusivos e sem anúncios
7 dias grátis