busca

Warlocks

Red Hot Chili Peppers

G|--------------------------------------------------------|
D|--------------------------------------------------------|
A|----3-4-3-2---2-3-4----------------------------------|
E|---------------------------4-3--------------------------|x 3


G|---------------------------------------------------------|
D|---------------------------------------------------------|
A|----3-4-3-2---2-3-4-----------------------------------|
E|---------------------------4-3-2-------------------------|

G|--------------------------------------------------------|
D|--------------------------------------------------------|
A|----3-4-3-2---2-3-4----------------------------------|
E|---------------------------4-3--------------------------|x 3

G|--------------------------------------------------------------|
D|---------------------------5----------------------------------|
A|----3-4-3-2---2-3-4----------------------------------------|
E|---------------------------------4-3--------------------------|


G|--------------------------------------------------------|
D|--------------------------------------------------------|
A|----3-4-3-2---2-3-4----------------------------------|
E|---------------------------4-3--------------------------|x 1


G|---------------------------------------3-5-----------------|
D|-----------------------------------------------3------------|
A|----3-4-3-2---2-3-4--------------------------------------|
E|---------------------------4-3------------------------------|

G|--------------------------------------------------------|
D|--------------------------------------------------------|
A|----3-4-3-2---2-3-4----------------------------------|
E|---------------------------4-3--------------------------|x 2

G|-------------------------------------------------------------------------------|
D|-------------------------------------------------------------------------------|
A|----4-4-4-4-4-4/2-2-2-2-2-2/0-0-0-0-0-0—0000000000-------------|
E|-------------------------------------------------------------------------------|x 2


G|--------------------------------------------------------|
D|--------------------------------------------------------|
A|----3-4-3-2---2-3-4----------------------------------|
E|---------------------------4-3--------------------------|x 3


G|----------------------------------------------------------------------|
D|-------------------------------------2------2------------------------|
A|----3-4-3-2---2-3-4----4-3-2--------4------4-3-2-0-------------|
E|-----------------------------------------------------------------------|

G|--------------------------------------------------------|
D|--------------------------------------------------------|
A|----3-4-3-2---2-3-4----------------------------------|
E|---------------------------4-3--------------------------|x 3

G|-----------------------------------------------------------|
D|-----------------------------3-5--------------------------|
A|----3-4-3-2---2-3-4-------------5----------------------|
E|-----------------------------------------4-3---------------|


G|--------------------------------------------------------|
D|--------------------------------------------------------|
A|----3-4-3-2---2-3-4----------------------------------|
E|---------------------------4-3--------------------------|x 4

G|-------------------------------------------------------------------------------|
D|-------------------------------------------------------------------------------|
A|----4-4-4-4-4-4/2-2-2-2-2-2/0-0-0-0-0-0—0000000000-------------|
E|-------------------------------------------------------------------------------|x 2

G|--------------------------------------------------------|
D|--------------------------------------------------------|
A|----3-4-3-2---2-3-4----------------------------------|
E|---------------------------4-3--------------------------|x 1

G|---------------------------------------------------------|
D|---------------------------------------------------------|
A|----3-4-3-2---2-3-4-----------------------------------|
E|---------------------------4-3-2-------------------------|

G|--------------------------------------------------------|
D|--------------------------------------------------------|
A|----3-4-3-2---2-3-4----------------------------------|
E|---------------------------4-3--------------------------|x 2

G|------------------------------------------------------------------------------|
D|------------------------------------------------------------------------------|
A|------------------------------------------------------------------------------|
E|---11111111111---333333333333-----55555555555-----33333333----555555555-------|x 4

SOLO
G|--------------------------------------------------------|
D|--------------------------------------------------------|
A|----3-4-3-2---2-3-4----------------------------------|
E|---------------------------4-3--------------------------|x 3

G|---------------------------------------|
D|-------------3------2-----------------|
A|---3-4-3----------------3-4-3-2----|
E|---------------------------------------|

G|--------------------------------------------------------|
D|--------------------------------------------------------|
A|----3-4-3-2---2-3-4----------------------------------|
E|---------------------------4-3--------------------------|x 3

G|--------------------------------------------------------|
D|--------------------------------------------------------|
A|----3-4-3-2---2-3-4----------------------------------|
E|---------------------------4~ ---3~ -------------------|x 1
Esta parte acima é o fim do solo


G|--------------------------------------------------------|
D|--------------------------------------------------------|
A|----3-4-3-2---2-3-4----------------------------------|
E|---------------------------4-3--------------------------|x 3

G|-------------------------------------------------------------------------------|
D|-------------------------------------------------------------------------------|
A|----4-4-4-4-4-4/2-2-2-2-2-2/0-0-0-0-0-0—0000000000-------------|
E|-------------------------------------------------------------------------------|x 3

G|--------------------------------------------------------------------------------|
D|--------------------------------------------------------------------------------|
A|----4-4-4-4-4-4/2-2-2-2-2-2/0-0-0-0-0-0—0000000000--4-----------|
E|--------------------------------------------------------------------------------|

A musica não saiu muito boa mas é possível acompanhar, se quiserem corrigir fiquem à vontade .

Clipes

Cifra Club Pro

Aproveite o Cifra Club com benefícios exclusivos e sem anúncios
7 dias grátis
Cifra Club Pro
Aproveite o Cifra Club com benefícios exclusivos e sem anúncios
7 dias grátis