busca

We Turn Red

Red Hot Chili Peppers

Tom: F
                                  VERSO 1   
                             
[(Guitarra 1) Clean+Posição do Braço](0:06)

E|---------------------------------------------------------------------------|
B|---------------------------------------------------------------------------|
G|---------------------------------------------------------------------------|
D|---------------------------------------------------------------------------|    
A|---------------------------------------------------------------------------|
E|------6h8-8-8--6h8-8-8--6h8-8-8--6h8-8-8--6h8-8-8--6h8-8-8--6h8-8-8--------|
                                                                                        x2
E|---------------------------------------------------------------------------|
B|---------------------------------------------------------------------------|
G|---------------------------------------------------------------------------|
D|---------------------------------------------------------------------------|    
A|---------------------------------------------------------------------------|
E|-----8g-6h8-8-8--6h8-8-8--6h8-8-8--6h8-8-8--6h8-8-8--6h8-8-8--6h8-8-8------|


                                 VERSO 2

[(Guitarra 1) Distorção leve com Low Pass Filter MoogMoogerfooger+ Posição Meio/ponte] 
--Alto falante direito (0:29)

E|---------------------------------------------------------------------------|
B|---------------------------------------------------------------------------|
G|-----------------------------------5-5-5-5-3b------------------------------|
D|--x-3-5--x-3-x-5-x-x-3h5--x-x-3-5------------------------------------------|     x6
A|---------------------------------------------------------------------------|
E|---------------------------------------------------------------------------|
 
[(Guitarra 2) Chorus e Reverb+Posição do Meio]

           Gm                       Gm6
E|---------------------------------------------------------------------------|
B|-------8-----------8--8----------8---------8-------------------------------|
G|-------7-----------7--7----------9---------9-------------------------------|    x2
D|-------8-----------8--8----------8---------8-------------------------------|
A|---------------------------------------------------------------------------|
E|---------------------------------------------------------------------------|


                                  REFRÃO

[(Guitarra 1) Clean+Posição da Ponte+Crescendo o volume a cada acorde] (1:04)
      Bb      Gm      Dm      C

E|----6-------3-------5-------8----------------------------------------------|
B|----6-------3-------6-------8----------------------------------------------|
G|----7-------3-------7-------9----------------------------------------------|
D|----8-------5-------7-------10---------------------------------------------|            x2
A|----x-------x-------5-------x----------------------------------------------|
E|----6-------3---------------8----------------------------------------------|
      T       T               T         
[Violão Acústico] (1:16)

                      Bb                              Gm

E|----------------------------------------6-------6-------6-------6-----------|          
B|-------6-------6-------6-------6------3-------3-------3-------3-------------|    
G|-----7-------7-------7-------7------3-------3-------3-------3---------------|
D|---8-------8-------8-------8------------------------------------------------|
A|----------------------------------------------------------------------------|
E|----------------------------------------------------------------------------|          x1

              Dm7                                                 C

E|-------------------------------------------------------------------------------------|
B|-----------10-------10--------8-10~---8--------------8--------8----------------------|
G|--------10-------10--------10-----------10~--------9--------9-------9--7-9~---7------|
D|-----10-------10-------10-----------------------10-------10------10-------------10~--|
A|-------------------------------------------------------------------------------------|
E|-------------------------------------------------------------------------------------|
                                     VERSO 3

[(Guitarra 1) Distorção leve com Low Pass Filter Moog Moogerfooger+ Posição Meio/ponte] 
--Alto falante direito (1:27)

E|---------------------------------------------------------------------------|
B|---------------------------------------------------------------------------|
G|-----------------------------------5-5-5-5-3b------------------------------|
D|--x-3-5--x-3-x-5-x-x-3h5--x-x-3-5------------------------------------------|     x6
A|---------------------------------------------------------------------------|
E|---------------------------------------------------------------------------|

[(Guitarra 2) Distorção+Posição do Meio]
--Alto falante Esquerdo (1:27)

E|---------------------------------------------------------------------------|
B|---------------------------------------------------------------------------|
G|-----------------------------------555---3~~-------------------------------|
D|--x-3-5--x-3-x-5-x-x-3h5--x-x-3-5--555---3~~-------------------------------|     x4
A|--x-3-5--x-3-x-5-x-x-3h5--x-x-3-5------------------------------------------|
E|---------------------------------------------------------------------------|


[(Guitarra 2) Chorus e Reverb+Posição do Meio] (1:51)

           Gm                       Gm6
E|---------------------------------------------------------------------------|
B|-------7-----------8--8----------8---------8-------------------------------|
G|-------7-----------7--7----------9---------9-------------------------------|    x2
D|-------8-----------8--8----------8---------8-------------------------------|
A|---------------------------------------------------------------------------|
E|---------------------------------------------------------------------------|
                             

                                     REFRÃO

[(Guitarra 1) Clean+Posição da Ponte+Crescendo o volume a cada acorde] (2:03)
      Bb      Gm      Dm      C

E|----6-------3-------5-------8----------------------------------------------|
B|----6-------3-------6-------8----------------------------------------------|
G|----7-------3-------7-------9----------------------------------------------|     x4
D|----8-------5-------7-------10---------------------------------------------|
A|----x-------x-------5-------x----------------------------------------------|
E|----6-------3---------------8----------------------------------------------|
      T       T               T         


[Violão Acústico] (2:14)

                      Bb                              Gm

E|----------------------------------------6-------6-------6-------6-----------|          
B|-------6-------6-------6-------6------3-------3-------3-------3-------------|    
G|-----7-------7-------7-------7------3-------3-------3-------3---------------|
D|---8-------8-------8-------8------------------------------------------------|
A|----------------------------------------------------------------------------|
E|----------------------------------------------------------------------------|

              Dm7                                                 C                      x3

E|-------------------------------------------------------------------------------------|
B|-----------10-------10--------8-10~---8--------------8--------8----------------------|
G|--------10-------10--------10-----------10~--------9--------9-------9--7-9~---7------|
D|-----10-------10-------10-----------------------10-------10------10-------------10~--|
A|-------------------------------------------------------------------------------------|
E|-------------------------------------------------------------------------------------|

[Guitarra Lap steel com Chorus+Reverb] (2:25)
--Alto falante Esquerdo


E|----------------------------------15~~---17\13~~-------18~~---18\--17\--13-13/17-17---17\15\12~~--|
B|--1/6~~---6/11~~---11/15~~---13/15---------------15/18---------------------------------------------|
G|---------------------------------------------------------------------------------------------------|
D|---------------------------------------------------------------------------------------------------|
A|---------------------------------------------------------------------------------------------------|
E|---------------------------------------------------------------------------------------------------|

                                  VERSO 4(1)   
                             
[(Guitarra 1) Clean+Posição do Braço](2:50)

E|---------------------------------------------------------------------------|
B|---------------------------------------------------------------------------|
G|---------------------------------------------------------------------------|
D|---------------------------------------------------------------------------|    
A|---------------------------------------------------------------------------|
E|------6h8-8-8--6h8-8-8--6h8-8-8--6h8-8-8--6h8-8-8--6h8-8-8--6h8-8-8--------|
                                                                                          x2
E|---------------------------------------------------------------------------|
B|---------------------------------------------------------------------------|
G|---------------------------------------------------------------------------|
D|---------------------------------------------------------------------------|    
A|---------------------------------------------------------------------------|
E|-----8g-6h8-8-8--6h8-8-8--6h8-8-8--6h8-8-8--6h8-8-8--6h8-8-8--6h8-8-8------|


E|---------------------------------------------------------------------------|
B|---------------------------------------------------------------------------|
G|---------------------------------------------------------------------------|
D|---------------------------------------------------------------------------|    x1
A|---------------------------------------------------------------------------|
E|-----8g-6h8-8-8--6h8-8-8--6h8-8-8--6h8-8-8--6h8-8-8--6h8-8-8--6h8-8-8------|

Clipes