busca

Why Don't You Love Me

Red Hot Chili Peppers

Tom: G
Intro:
       (8x)              (6x)
E|---------|-----|-----------|
B|---------|-----|-----------|
G|---------|-----|-----------|
D|-7-------|-5~--|-------7---|
A|---0-0-0-|-----|-0-0-0-----|
E|---------|-----|-----------|

Verso 4x:
E|-------------------------|
B|-------------------------|
G|-------------------------|
D|-7/4--4-5-----7/4--5-4---|
A|-------------------------|
E|-------------------------|

Base Solo de Trompete 2x:
E|-------------------------|
B|-------------------------|
G|-------------------------|
D|-9/6--6-7-----9/6--7-6---|
A|-------------------------|
E|-------------------------|

(Verso)

Passagem 2x:
E|---------------------------------|
B|---------------------------------|
G|---------------------------------|
D|---------------3-----------------|
A|--5-2----2-3-5-----5-2----2-3----|
E|---------------------------------|

Refrão:
        Em                  E7/9
E|-0----0-----0-----0--|---7-7-7-7-7-7-7-7-7-7-7-7-7-7-7-7-7-7-7-7-7-|
B|-0----0-----0-----0--|---7-7-7-7-7-7-7-7-7-7-7-7-7-7-7-7-7-7-7-7-7-|
G|-0----0-----0-----0--|---7-7-7-7-7-7-7-7-7-7-7-7-7-7-7-7-7-7-7-7-7-|
D|-2----2-----2-----2--|---6-6-6-6-6-6-6-6-6-6-6-6-6-6-6-6-6-6-7-7-7-|
A|-2----2-----2-----2--|---7-7-7-7-7-7-7-7-7-7-7-7-7-7-7-7-7-7-7-7-7-|
E|-0----0-----0-----0--|---------------------------------------------|

Solo:
                                                                (4x)
E|---------------------------------------------8-9-----|-8-9--------|
B|-10~--------------------------------------10-----10--|-----10-----|
G|-9~---7b--6-7-6--------------------------------------|--------9---|
D|----------------7-5------5-7----9b-7-9b--------------|------------|
A|---------------------7-9-----------------------------|------------|
E|-----------------------------------------------------|------------|

E|----------------------------------------------------|
B|-10~------------------------------------------------|
G|-----9-7-9-7----------------------------------------|
D|--------------7-10-----------7----------------------|
A|-------------------7-10-7-10------------------------|
E|----------------------------------------------------|

Final:
E|--------------------------------------------|
B|--------------------------------------------|
G|--7h9-7-------------------------------------|
D|---------9/7-5-7-5--------------------------|
A|-------------------7---2p0------------------|
E|---------------------------0-3b-0-----------|

Clipes