busca

Yertle The Turtle

Red Hot Chili Peppers

Tom: C
Played with wah-wah pedal.

______
Intro |
______|

(before and at the start of the verses)


B|---------------------------------------------------------------------------|
G|----------------------------------------------------------------------|
D|---------3---5--x-3--5-----------------------------------------------------|
A|-0--00-------------------------------------------------------------------|


__________
Main riff |
__________|

(through the most of the verses)


E|-xx--------------------------------------------------------------------------|
B|----6666-----------------------------------------------------------------------|
G|-----------xx55--x--7-----2-2----------------------------------------------|
D|-----------------------x--------------------------------------|
A|-------------------------------------------------------------|
E|---------------------------------------------------------------------|

Move that leg up&down on the wah-wah pedal!

____chorus____________________
E|--5b--------------------------------------
B|-8b----------9---10----9---10-----------------
G|-6b----------9---10----9---10---------------(X3)
A|-5b----------7---8-----7---8---------------
E|-7b-----------------------------------
"...He piled them high
    Into a ten turtle stack
    I'm Yertle the turtle The things I now rule
    I'm king of a cow I'm king of a mule
              (Look at that turtle go,bro!)..."

Here comes the bridge.

_________|

G5        Bb5        C5

Clipes