A Guerra Ganha Está

Renascer Praise

Am/5b
123
X01210
Bb
234
X13331
Bb7/Ab
1234
4X333X
C/E
123
032010
C7
1234
X3231X
C7/Bb
123
X1201X
Cm
234
X35543
Cm7+/B
12
X2100X
Eb
234
X65343
Fm
34
133111
G7
34
353433
Tom: G
Cifra e Tab da música...

Cifra:

Cm
Já se ouve o toque das trombetas
Cristo seu exército chamando está
Ergam-se os braços que O adoram
Sob os nossos pés o inimigo ficará
 
Fm
Com Ele está braço da carne
                G7
Conosco está o Rei dos reis
Grande senhor
Cm
Aleluia aleluia 
Vamos avançar
Cm
Aleluia aleluia
  G7            Cm
A guerra ganha está

Cm
Jesus Jesus Jesus ressuscitou
Jesus Jesus Jesus na cruz venceu          
 
Rei dos reis
Senhor dos exercitos
O Rei dos reis
A frente vai
         G7           Cm
Seu braço forte exaltará    
   G7 Cm Cm7+/B C7/Bb Am/5b Bb Bb7/Ab Eb 
Aleluia
 C/E   C7  Fm   C/E  Fm  G7
Ele vive Jesus Salvador 

 G7           Cm
Cristo já venceu
Venceu, venceu, ressuscitou

#1t1##1t2#---------------------------------------------------------------------------#/1t2##/1t1#

Tab feita por mim na escala de pentatonica Cm, segundo a harmonia da orquestra:

#2t1##2t2#E|-|--------------------------------|--------------------------------------------------------------|
B|-|-----------------------------11-|------------------------------------------------------------8-|
G|-|----------------------8--10-----|-8--10------8-10-8--------8-10-8-------------------8---8-10---|
D|-|---------------8--10------------|-------------------10-8----------10-8---------8-10------------|
A|-|--------8--10-------------------|--------------------------------------10-8-10-----------------|
E|-|-8--11--------------------------|--------------------------------------------------------------|#/2t2##/2t1#

#3t1##3t2#E|-|-----------------------------------------------------------------|
B|-|-------------------------------------------------8---------------|
G|-|-8-10-8--------8-10-8-------------------8---8-10-----8-10-8------|
D|-|--------10-8----------10-8---------8-10---------------------10-8-|
A|-|---------------------------10-8-10-------------------------------|
E|-|-----------------------------------------------------------------|#/3t2##/3t1#

(intervalo do solo do baixo)

#4t1##4t2#E|-|-------------------------------------------------8--------8---|
B|-|-----------------------------------------------8-----8-11-----|
G|-|-8--10------8-10-8--------8-10-8-------------8----------------|
D|-|-------------------10-8----------10-8------8------------------|
A|-|--------------------------------------10-8--------------------|
E|-|--------------------------------------------------------------|#/4t2##/4t1#

#5t1##5t2#E|-|-------------------------------------------------------------8-----------------------------|
B|-|-8--11--8-----------8-11-8------11-8-----------------------8----------8--------------------|
G|-|-----------10--8-----------10-8------10-8----------------8-------8-10----8-10-8------------|
D|-|------------------------------------------10-8---------8------------------------10-8-------|
A|-|-----------------------------------------------10-8-10-------------------------------------|
E|-|-------------------------------------------------------------------------------------------|#/5t2##/5t1#

#6t1##6t2#E|-|-------------------------8-------------------------------------------------------8---------|
B|-|-----------------------8-----------8-------------------------------------------8-----------|
G|-|--8-10-8-------------8--------8-10-------8-10-8--------8-10-8----------------8-------------|
D|-|---------10-8------8----------------------------10-8----------10-8---------8---------------|
A|-|--------------10-8-------------------------------------------------10-8-10-----------------|
E|-|-------------------------------------------------------------------------------------------|#/6t2##/6t1#

#7t1##7t2#E|-|------------------------------------------------------------------------------|
B|-|-8-11-8--------8-11-8---------------------------------------------------------|
G|-|--------10-8----------10-8--10-8----------------------------------------------|
D|-|---------------------------------10-8--10-8-----------------------------------|
A|-|--------------------------------------------10-8---10-8------10-8-------------|
E|-|--------------------------------------------------------11-8------11-8--11\~--|#/7t2##/7t1#

#8t1##8t2#E|-|----------------------------------------------------------------|
B|-|-8-11-8---------------------------------------------------------|
G|-|--------10-8--10-8----------------------------------------------|
D|-|-------------------10-8--10-8-----------------------------------|
A|-|------------------------------10-8---10-8------10-8-------------|
E|-|------------------------------------------11-8------11-8--11\~--|#/8t2##/8t1#

#9t1##9t2#E|-|----------------------------------------------------------------------------------------------|
B|-|---------------------------------------11-----------------------------------------------------|
G|-|----------------------------8-10--8-10--------------------------------------------------------|
D|-|-----------------8-10--8-10-------------------------------------------------------------------|
A|-|------8-10--8-10------------------------------------------------------------------------------|
E|-|-8-11-----------------------------------------------------------------------------------------|#/9t2##/9t1#

#10t1##10t2#E|-|----------------------------------------------------------------|
B|-|-8-11-8---------------------------------------------------------|
G|-|--------10-8--10-8----------------------------------------------|
D|-|-------------------10-8--10-8-----------------------------------|
A|-|------------------------------10-8---10\~-----------------------|
E|-|----------------------------------------------------------------|#/10t2##/10t1#

 O solo da guitarra e do baixo assim que termina a introdução da orquestra
 (2x)
#11t1##11t2#E|-|----------------------------------------------------------------|
B|-|----------------------------------------------------------------|
G|-|-5-8-5-----5----------------------------------------------------|
D|-|-------8-7---7-5-4--7-4-----4-----------------------------------|
A|-|------------------------7-6---6-4-3-----------------------------|
E|-|----------------------------------------------------------------|#/11t2##/11t1#

#12t1##12t2#E|-|----------------------------------------------------------------|
B|-|----------------------------------------------------------------|
G|-|-------------------------5-6-7-8--------------------------------|
D|-|---------1-2-3-4-4-5-6-7----------------------------------------|
A|-|-3-4-5-6--------------------------------------------------------|
E|-|----------------------------------------------------------------|#/12t2##/12t1#

#13t1##13t2#E|-|----------------------------------------------------------------|
B|-|----------------------------------------------------------------|
G|-|-5-8-5-----5----------------------------------------------------|
D|-|-------8-7---7-5-4--7-4-----------------------------------------|
A|-|------------------------7-6-------------------------------------|
E|-|----------------------------------------------------------------|#/13t2##/13t1#
Composição: Colaboração e revisão: Milani SilvaJonathan Lima