busca

Depois de Você

Rionegro e Solimões

Tom: E
Intro:  E
           A                      E               B7                                      E
E|--------------------------| ----------------------------|--------------------------------------------------
B|--------------------------| ----------------------------|--------------------------------------------------
G|------------------------2-| ----------------------------|-----4-----------4--------------------------------
D|--------------------2-4---| -----2--------------------2-|-4H6---6H4-----------------------4----------------
A|-------------0--2-4-------| -2-4------------------2-4---|-----------7-4H6---6H4---4---4H6---6H4------------
E|-0-0-2-2-4-4--------------| -------2H3-2-0----2-4-------|-----------------------7---7-----------7-2H3-2-0--

   E
Você, foi o meu dia de chuva,
                                     B
Foi a neblina foi a curva da minha estrada
 A                       E
Foi a solidão do fim da tarde
                   B7                     E
Foi a dor de uma saudade, no frio da madrugada

 A                        E
Foi a distância que se fez perto
                 B7    A       B7      E
O calor do meu deserto, o pranto que chorei
 A                         E
Foi o silêncio de uma despedida
                    B7    A     B7      E E7
Foi também em minha vida, quem eu mais amei

           A                          E
Depois de você, ninguém mais em meu caminho
                   B7    A      B7      E E7
Eu me sinto tão sozinho,  depois de você
             A                  E
Depois de você, vivo a me procurar
                      B7    A
Mas não consigo me encontrar
      B7   E
Depois de você

[Solo]

            A                       E                B7                             E
E|-----------------------------| ----------------------------|-----------------------------------------------
B|-----------------------------| ---------------5------------|-----------------------------------------------
G|--------------------------2--| ----------------------------|-----4-----------------------------------------
D|----------------------2-4----| -----2-4-2-4/6---4----------|---------------------4------------------------2
A|-------------0----2-4--------| -2-4---------------6-4---7--|-4H6---6H4---4---4H6---6H4----------------2-4--
E|-0-0-2-2-4-4-----------------| -----------------------7----|-----------7---7-----------7-2H3-2-0--2-4------

Clipes

Cifra Club Pro

Aproveite o Cifra Club com benefícios exclusivos e sem anúncios
Cifra Club Pro
Aproveite o Cifra Club com benefícios exclusivos e sem anúncios