A
123
X02220
B
234
X24442
C#m
234
X46654
E
123
022100
Tom: G
Intro 4x: E  A  B

#1t1##1t2#E|-4-4/2-0-----9-9-7--5-5-4-4--------4-4/2-0--------------------| 
B|----------2---------------------------------2---9-9-7--11-11--| 
G|-4-4/2-0-----9-9-8--6-6-4-4--------4-4/2-0--------------------| 
D|----------2---------------------------------2---9-9-7--11-10--| 
A|--------------------------------------------------------------| 
E|--------------------------------------------------------------| #/1t2##/1t1#
 
E            A         B   A     E
 Se quer saber como estou,tô mal 
         A       B
Eu não vou nada bem 
#2t1##2t2#E|---------------|
B|------10--9----|
G|---------------|
D|-10/11---9-----|
A|---------------|
E|---------------|#/2t2##/2t1#

E            A       B    A     E
 Se quer saber a verdade,tô mal 
       A          B
Sem você sou ninguém 

#3t1##3t2#E|---------------------------|
B|-4-5-5/7-7-5-4---4h5-------|
G|---------------4-4h6-------|
D|---------------------------|
A|---------------------------|
E|---------------------------|#/3t2##/3t1#
 
A                  B
 Ando fingindo pro mundo 
#4t1##4t2#E|----2-------|
B|-4-5--2-----|
G|------------|
D|------------|
A|------------|
E|------------|#/4t2##/4t1#

A                E
 Ando fugindo de tudo 
#5t1##5t2#E|-2/4-4------|
B|-------2----|
G|-2/4-4------|
D|-------2----|#/5t2##/5t1#
A                         B
 Mas não te esquece um segundo 
A        E   A B
Meu coração 
#6t1##6t2#E|-4-4/2-0----9-9-7--5-5-7-9-|
B|---------2-----------------|
G|-4-4/2-0----9-9-8--6-6-8-9-|
D|---------2-----------------|
A|---------------------------|
E|---------------------------| #/6t2##/6t1#
  C#m        A   E   B
 Meu mundo acabou      E|----------------|
#7t1##7t2#                       B|-7-5-4-7-7/9----|#/7t2##/7t1#

C#m        A       B
 Quando você me deixou 
#8t1##8t2#E|--------------|
B|-5-4--4h5-----|
G|----4-4h6-----|
D|--------------|#/8t2##/8t1#

A          B            E
 Por isso não me ligue mais pra saber 
            A               B        E  A (vai pra B) B
Se eutou bem,   já sabe que não estou  E|-4-4/2-0---2---|
#9t1##9t2#                                       B|---------2-2---|
                                       G|-4-4/2-0---4---|
                                       D|---------2-4---|
                                       A|-----------2---|
                                       E|-----------2---|  #/9t2##/9t1#
         A       E
É só se por no meu lugar 
#10t1##10t2#E|----2------------------------------|
B|-2/4-2h4p2-------5-----------------|
G|-----------4-4/6---4h6p4/2-2-2/4---|
D|-----------------------------------|
A|-----------------------------------|
E|-----------------------------------| #/10t2##/10t1#

B         A     E
 Que você vai me entender 
B              A          E
 Quando alguem perde um amor 
                       A
Que jurou ser pra sempre 
 B                  E
  Perde a razão de viver 
 
#11t1##11t2#E|-4-4/2-0-----9-9-7--5-5-4-4--------4-4/2-0-------------5-5-7-9----| 
B|----------2---------------------------------2---9-9-7-------------| 
G|-4-4/2-0-----9-9-8--6-6-4-4--------4-4/2-0-------------7-7-8-9----| 
D|----------2---------------------------------2---9-9-7-------------| 
A|------------------------------------------------------------------| 
E|------------------------------------------------------------------|#/11t2##/11t1#
  C#m        A    E  B
 Meu mundo acabou      E|----------------|
#12t1##12t2#                       B|-7-5-4-7-7/9----|#/12t2##/12t1#

C#m        A       B
 Quando você me deixou 
#13t1##13t2#E|----------------|
B|-5-4----4h5-----|
G|----4---4h6-----|
D|----------------|#/13t2##/13t1#

A          B            E
 Por isso não me ligue mais pra saber 
            A               B        E  A (vai pra B) B
Se eutou bem,   já sabe que não estou  E|-4-4/2-0---2---|
#14t1##14t2#                                       B|---------2-2---|
                                       G|-4-4/2-0---4---|
                                       D|---------2-4---|
                                       A|-----------2---|
                                       E|-----------2---|  #/14t2##/14t1#
         A       E
É só se por no meu lugar 
#15t1##15t2#E|----2------------------------------|
B|-2/4-2h4p2-------5-----------------|
G|-----------4-4/6---4h6p4/2-2-2/4---|
D|-----------------------------------|
A|-----------------------------------|
E|-----------------------------------| #/15t2##/15t1#

B         A     E
 Que você vai me entender 
#16t1##16t2#E|----7------------------|
B|-7/9--7h9p7-5-5/7------|#/16t2##/16t1#
B              A          E
 Quando alguem perde um amor 
                       A
Que jurou ser pra sempre 
 B                  E
  Perde a razão de viver 

(Repete final algumas vezes)
 
#17t1##17t2#E|-4-4/2-0-----9-9-7-----4-4/2-0-------------5-5--4-4-| 
B|----------2--------------------2---9-9-7------------| 
G|-4-4/2-0-----9-9-8-----4-4/2-0-------------6-6--4-4-| 
D|----------2--------------------2---9-9-7------------| 
A|----------------------------------------------------| 
E|----------------------------------------------------|#/17t2##/17t1#
Composição: GabrielColaboração e revisão: Brenda TomazzelliJosé TavaresReginaldoLeonardo Rodrigues