busca

A Namorada

Roberto Carlos

Tom: F
(intro) F Bb/F Bb/C

F
Você que vem de dentro
     Bb/F
da saudade que eu sentia
     Bb/C
da noite mal dormida
     F       Bb/F
da minha fantasia
F                           Bb/F
Você, que renasceu do meu segredo,
                      Bb/C
do meu sonho, do meu medo, do meu verso
        F             F5+
e da verdade derradeira

você, a companheira

(refrão)
Bb      C7           Am
A namorada á minha espera,
D7                 G7                       Bb/C
meu refúgio, meu regresso, minha vida, meu amor
Bb            C7             Am                    D7
Você, uma lembrança, uma esperança, o sonho mais bonito
     G7            Bb/C
Que viveu pra se acabar

F              Bb/F
Você, momento eterno

Você, amanhecer
Bb/C                 F    F5+
Você, razão do meu viver!

(refrão)
F
Você, que vem de dentro
Bb/F
da saudade que eu sentia
Bb/C
da noite mal dormida
F            Bb/F   F
da minha fantasia

você, momento eterno
   Bb/F
você, amanhecer
Bb/C                 F    Bb/F Bbm/F F7+
você, razão do meu viver!

E |----------5-5-3-------5-3-5-3-----5-3-5-3------3-1-3-1---
B |--------6-------6--------------------------------------6-
G |-5--5-7-----------3------------3------------3-2----------
D |---------------------------------------------------------

E |----------5-5-3-------5-3-5-3-----5-3-5-3-------------------------------------------10-|
B |--------6-------6--------------------------6-5-8-6-6-5-8-6-6-5-8-6-6-5-8-6-5-6-8-10----|
G |-5--5-7-----------3-----------3--------------------------------------------------------|
D |---------------------------------------------------------------------------------------|

Clipes