Como É Grande o Meu Amor Por Você

Roberto Carlos

Ab7(11+)
1234
4X453X
Ab7M
1234
4X554X
Am7
12
X02010
Bb/F
1234
X8876X
Bbm7
34
X13121
C7
1234
X3231X
C7(4)
1234
X3331X
C7(4/13)
234
X35365
Dm7
34
X57565
Dm7(9/11)
234
X53553
Eb7
1234
X6564X
F
234
133211
F#°
1234
2X121X
F#º
1234
2X121X
F7M
1234
1X221X
F7M(9)/A
1234
X03553
Fm7
1234
1X111X
G7
34
353433
G7(4/13)
234
35355X
G7(4/9)
1234
3X321X
Gm7
1234
3X333X
Gm7(11)
1234
3X331X
Tom: G
[Intro] Gm7  C7  F  Bb/F  F  F#º

#1t1#         Gm7           C7          F
#1t2#E|---1---1---------1-------------5\1--------|
B|-3---3---3-----3---3-5-------------1------|
G|-----------3-----------3-----5-----2------|
D|-------------------------5---------3------|
A|---------------------3-----3--------------|
E|-------3-----3-------------------1--------|#/1t2##/1t1#

#2t1#   Bb/F  F     F#º
#2t2#E|------------------------------------------|
B|-3-----1-----1----------------------------|
G|-3-----2-----2----------------------------|
D|-3-----3-----1----------------------------|
A|------------------------------------------|
E|-1-----1-----2----------------------------|#/2t2##/2t1#

#3t1#[Dedilhado Padrão]

   Gm7(11)
#3t2#E|------------------------------------------|
B|-1-----1----------------------------------|
G|---3-------3------------------------------|
D|-----3-------3----------------------------|
A|------------------------------------------|
E|-3-------3--------------------------------|#/3t2##/3t1#
 
#4t1#   Am7        Ab7(11+)  Gm7
#4t2#E|------------------------------------------|
B|-1----------3---------3-----3-------------|
G|---0--------5-----------3-------3---------|
D|-----2------4-------------3-------3-------|
A|-0----------------------------------------|
E|------------4---------3-------3-----------|#/4t2##/4t1#

#5t1#   F7M(9)/A    Dm7
#5t2#E|-3-----------1----------------------------|
B|-5-----------1----------------------------|
G|-5-----------2----------------------------|
D|-3-----------0----------------------------|
A|-0----------------------------------------|
E|------------------------------------------|#/5t2##/5t1#
 
#6t1#   F     Bb/F  F    Dm7(9/11)
#6t2#E|------------------3-----------------------|
B|-1-----3-----1----5-----------------------|
G|-2-----3-----2----5-----------------------|
D|-3-----3-----3----3-----------------------|
A|------------------5-----------------------|
E|-1-----1-----1----------------------------|#/6t2##/6t1#

[Primeira Parte]

          Gm7(11)         C7
Eu tenho tanto pra lhe falar
           F7M              Am7  Ab7(11+)
Mas com palavras não sei dizer
         Gm7          C7        F7M  F7M(9)/A  Dm7
Como é grande o meu amor por você

          Gm7(11)       C7
E não há nada pra comparar
        F7M          Am7  Ab7(11+)
Para poder lhe explicar
         Gm7          C7        F  Bb/F  F  Dm7(9/11)
Como é grande o meu amor por você


#7t1#   G7(4/9) G7          G7(4/13) G7
#7t2#E|------------------------------------------|
B|-1-------0-0---------5--------3-3---------|
G|-2-------0-0---------5--------4-4---------|
D|-3-------3-3---------3--------3-3---------|
A|------------------------------------------|
E|-3---------3---------3----------3---------|#/7t2##/7t1#

#8t1#   C7(4/13) C7          F#º
#8t2#E|-5--------3-3-----------------------------|
B|-6--------5-5---------1-------------------|
G|-3--------3-3---------2-------------------|
D|----------------------1-------------------|
A|-3----------3-----------------------------|
E|----------------------2-------------------|#/8t2##/8t1#

[Segunda Parte]

             Gm7            C7
Nem mesmo o céu, nem as estrelas
             F7M         Dm7
Nem mesmo o mar e o infinito
         Gm7            C7
Não é maior que o meu amor
            F7M  F7M(9)/A  Dm7
Nem mais bonito

         Gm7         C7
Me desespero a procurar
        F7M            Dm7
Alguma forma de lhe falar

         G7(4/9) G7         G7(4/13) G7        
Como é grande       o meu amor          
       C7(4/13)  C7  Gm7  F#°
Por você

[Passagem]

#9t1#   F     Bb/F  F
#9t2#E|------------------------------------------|
B|-1---1-3-1---1----------------------------|
G|-2-3---3---3-2----------------------------|
D|-3-----3-----3----------------------------|
A|------------------------------------------|
E|-1-----1-----1----------------------------|#/9t2##/9t1#

[Terceira Parte]

             Gm7(11)       C7
Nunca se esqueça nenhum segundo
                 F7M          Am7   Ab7(11+)
Que eu tenho o amor maior do mundo
         Gm7          C7
Como é grande o meu amor
       F  Bb/F  F
Por você

[Solo] Bbm7  Eb7  Ab7M  Fm7 
       Bbm7  Eb7  C7(4) C7  F#º

[Solo com base]

#10t1#         Bbm7          Eb7
#10t2#E|-1-4-1-4-------1-4-1-3--------------------|
B|---------2-------------2------------------|
G|-----------3-------------3----------------|
D|---------------------1-----1--------------|
A|-------1-----1----------------------------|
E|------------------------------------------|#/10t2##/10t1#

#11t1#           Ab7M         Fm7
#11t2#E|-----3---3--------3-4\1------1-4-1-4------|
B|-2/4---4---4----4-------1------------2----|
G|-------------5------------1------------3--|
D|------------------------------------------|
A|-----------------------------------1-----1|
E|---------4-----4------1-----1-------------|#/11t2##/11t1#

#12t1#         Eb7         C7(4)         C7 F#º
#12t2#E|-1-4-1-3----------------------------------|
B|---------2---2-4p2-1-----1-------1--1-----|
G|-----------3-3-------3-------3---3--2-----|
D|-------1-----1---------3-------3-2--1-----|
A|-------------------3-------3-----3--------|
E|------------------------------------2-----|#/12t2##/12t1#

[Solo]

#13t1#         Bbm7     Eb7      Ab7M       Fm7
#13t2#E|---4---4----4---3----3---3----3-3/4-------|
B|-6---6----6---6----4---4----4-------6-----|
G|------------------------------------------|
D|------------------------------------------|
A|------------------------------------------|
E|------------------------------------------|#/13t2##/13t1#

#14t1#         Bbm7     Eb7       C7(4) C7  F#º
#14t2#E|---4---4----4---3--9-11p9-8---------------|
B|-6---6----6---6---------------------------|
G|------------------------------------------|
D|------------------------------------------|
A|------------------------------------------|
E|------------------------------------------|#/14t2##/14t1#

[Final]
             Gm7(11)       C7
Nunca se esqueça nenhum segundo
                 F7M          Am7   Ab7(11+)
Que eu tenho o amor maior do mundo
         Gm7          C7      F7M  F7M(9)/A  Dm7
Como é grande o meu amor por você
         Gm7          C7        F  Bb/F  F
Como é grande o meu amor por você
Composição: Roberto CarlosColaboração e revisão: Gustavo VazRaffael UascarThiago AlmeidaEugenio Costae mais 5
Videoaula Como É Grande o Meu Amor Por Você (aula de violão completa)