busca

Como É Grande o Meu Amor Por Você

Roberto Carlos

Tom: Dm
[Intro] Gm7  C7  F  Bb/F  F  F#º

         Gm7           C7          F
E|---1---1---------1-------------5\1--------|
B|-3---3---3-----3---3-5-------------1------|
G|-----------3-----------3-----5-----2------|
D|-------------------------5---------3------|
A|---------------------3-----3--------------|
E|-------3-----3-------------------1--------|

   Bb/F  F     F#º
E|------------------------------------------|
B|-3-----1-----1----------------------------|
G|-3-----2-----2----------------------------|
D|-3-----3-----1----------------------------|
A|------------------------------------------|
E|-1-----1-----2----------------------------|

[Primeira Parte]

[Dedilhado Padrão]

   Gm7(11)
E|------------------------------------------|
B|-1-----1----------------------------------|
G|---3-------3------------------------------|
D|-----3-------3----------------------------|
A|------------------------------------------|
E|-3-------3--------------------------------|
 
   Am7        Ab7(11+)  Gm7
E|------------------------------------------|
B|-1----------3---------3-----3-------------|
G|---0--------5-----------3-------3---------|
D|-----2------4-------------3-------3-------|
A|-0----------------------------------------|
E|------------4---------3-------3-----------|

   F7M(9)/A    Dm7
E|-3-----------1----------------------------|
B|-5-----------1----------------------------|
G|-5-----------2----------------------------|
D|-3-----------0----------------------------|
A|-0----------------------------------------|
E|------------------------------------------|
 
   F     Bb/F  F    Dm7(9/11)
E|------------------3-----------------------|
B|-1-----3-----1----5-----------------------|
G|-2-----3-----2----5-----------------------|
D|-3-----3-----3----3-----------------------|
A|------------------5-----------------------|
E|-1-----1-----1----------------------------|

          Gm7(11)         C7
Eu tenho tanto pra lhe falar
           F7M              Am7  Ab7(11+)
Mas com palavras não sei dizer
         Gm7          C7        F7M  F7M(9)/A  Dm7
Como é grande o meu amor por você

          Gm7(11)       C7
E não há nada pra comparar
        F7M          Am7  Ab7(11+)
Para poder lhe explicar
         Gm7          C7        F  Bb/F  F  Dm7(9/11)
Como é grande o meu amor por você

[Segunda Parte]

   G4(7/9) G7          G4(7/13) G7
E|------------------------------------------|
B|-1-------0-0---------5--------3-3---------|
G|-2-------0-0---------5--------4-4---------|
D|-3-------3-3---------3--------3-3---------|
A|------------------------------------------|
E|-3---------3---------3----------3---------|

   C7(4/13) C7          F#º
E|-5--------3-3-----------------------------|
B|-6--------5-5---------1-------------------|
G|-3--------3-3---------2-------------------|
D|----------------------1-------------------|
A|-3----------3-----------------------------|
E|----------------------2-------------------|

             Gm7            C7
Nem mesmo o céu, nem as estrelas
             F7M         Dm7
Nem mesmo o mar e o infinito
         Gm7            C7
Não é maior que o meu amor
            F7M  F7M(9)/A  Dm7
Nem mais bonito

         Gm7         C7
Me desespero a procurar
        F7M            Dm7
Alguma forma de lhe falar

         G4(7/9) G7         G4(7/13) G7        
Como é grande       o meu amor          
       C7(4/13)  C7  Gm7  F#°
Por você

[Terceira Parte]

[Passagem]

   F     Bb/F  F
E|------------------------------------------|
B|-1---1-3-1---1----------------------------|
G|-2-3---3---3-2----------------------------|
D|-3-----3-----3----------------------------|
A|------------------------------------------|
E|-1-----1-----1----------------------------|

             Gm7(11)       C7
Nunca se esqueça nenhum segundo
                 F7M          Am7   Ab7(11+)
Que eu tenho o amor maior do mundo
         Gm7          C7
Como é grande o meu amor
       F  Bb/F  F
Por você

[Solo] Bbm7  Eb7  Ab7M  Fm7 
       Bbm7  Eb7  C7(4) C7  F#º

[Solo com base]

         Bbm7          Eb7
E|-1-4-1-4-------1-4-1-3--------------------|
B|---------2-------------2------------------|
G|-----------3-------------3----------------|
D|---------------------1-----1--------------|
A|-------1-----1----------------------------|
E|------------------------------------------|

           Ab7M         Fm7
E|-----3---3--------3-4\1------1-4-1-4------|
B|-2/4---4---4----4-------1------------2----|
G|-------------5------------1------------3--|
D|------------------------------------------|
A|-----------------------------------1-----1|
E|---------4-----4------1-----1-------------|

         Eb7         C7(4)         C7 F#º
E|-1-4-1-3----------------------------------|
B|---------2---2-4p2-1-----1-------1--1-----|
G|-----------3-3-------3-------3---3--2-----|
D|-------1-----1---------3-------3-2--1-----|
A|-------------------3-------3-----3--------|
E|------------------------------------2-----|

[Solo]

         Bbm7     Eb7      Ab7M       Fm7
E|---4---4----4---3----3---3----3-3/4-------|
B|-6---6----6---6----4---4----4-------6-----|
G|------------------------------------------|
D|------------------------------------------|
A|------------------------------------------|
E|------------------------------------------|

         Bbm7     Eb7       C7(4) C7  F#º
E|---4---4----4---3--9-11p9-8---------------|
B|-6---6----6---6---------------------------|
G|------------------------------------------|
D|------------------------------------------|
A|------------------------------------------|
E|------------------------------------------|

Clipes