busca

O Diamante Cor-de-rosa

Roberto Carlos

Tom: C
Intodução: Am7

          Bm7 E7/9-  Am7         Bm7  E7/9-  Am7
e|-----0-3-2---1------0-------0-3-2----1------0---|
B|-1-3-------3------3-----1-3-------3-------3-----|
G|------------------------------------------------|
D|------------------------------------------------|
A|------------------------------------------------|
E|------------------------------------------------|

          Dm7  G7  C7+  F7   Bb7+      E7         Am7
e|-------0-1----3---0----1----------------------------|
B|---0-1------3---3----1---1--3-----------------------|
G|-2------------------------------3-3-2-1-------------|
D|-----------------------------------------2-0--------|
A|-----------------------------------------------3-0--|
E|---------------------------------------------4------|

          Bm7  E7/9-  Am7         Bm7   E7/9-  Am7
e|-----0-3-2----1------0-------0-3-2--3--1------0---|
B|-1-3-------3------3-----1-3--------------3--------|
G|--------------------------------------------------|
D|--------------------------------------------------|
A|--------------------------------------------------|
E|--------------------------------------------------|

          Dm7  G7  C7+  F7   Bb7+      E7  Am7
e|-------0-1----3---0----1--------------------|
B|---0-1------3---3----1---1--3---------------|
G|-2--------------------------------3-2-1---2-|
D|--------------------------------------------|
A|--------------------------------------------|
E|--------------------------------------------|

          Bm7  E7/9-      Am7        Bm7 E7/9-      Am7
e|-------------------------------------------------------|
B|---0-1---3-----------0-3-1----0-1---3----------0-3-1---|
G|-2-----2---2-1-----2--------2-----2---2-1----2---------|
D|-------------------------------------------------------|
A|-------------------------------------------------------|
E|-------------------------------------------------------|

          Dm7   G7      C7+    F7     Bb7+  E7     Am7
e|-------0-1----7-5------------5-3--------------------|
B|---0-1------3-----8----5---------6---3----------1---|
G|-2------------------7----5---------5---5--1-2-4---2-|
D|----------------------------------------------------|
A|----------------------------------------------------|
E|----------------------------------------------------|

Clipes

Cifra Club Pro

Aproveite o Cifra Club com benefícios exclusivos e sem anúncios
7 dias grátis
Cifra Club Pro
Aproveite o Cifra Club com benefícios exclusivos e sem anúncios
7 dias grátis