busca

Oh! Meu imenso amor

Roberto Carlos

Tom: G
G
Ah se você me deixar
                    D7
Não saberei mais viver
  Am           D7
Eu te juro querida
 G             E7
Te darei minha vida
 A7
Farei tudo
            D7
Pra você ficar
 G
Mas se você me entender
                C
E aceitar meu amor
                  G  F# F E7
Eu viverei tão feliz e direi
A7        D7     G
Oh! Meu imenso amor


                             D7 Am         D7 G         E7
E|-----------------------------------0-------------------
B|-----------------------------1---3---1-0---------------
G|-----0-4-2-0-4-4-2-0-0-------------------2-0-2-4-0-----
D|-0-2-------------------0-2-4-----------------------4-2-

    A7             D7 G                         C           G F#  F E7
E|-----------------------------------------------0-------------------
B|-----------------1---------------------------1---3-1---------------
G|-2-4-2---2-4-2-4-------0-4-2-0-4-4-2-0-0-2-0---------0-2-4-3---2-1-
D|-------2-----------0-2---------------------------------------------

    A7    D7    G
E|---------------|
B|---------3-----|
G|-----0-4---4-0-|
D|-2-4-----------|

Clipes

Cifra Club Pro

Aproveite o Cifra Club com benefícios exclusivos e sem anúncios
7 dias grátis
Cifra Club Pro
Aproveite o Cifra Club com benefícios exclusivos e sem anúncios
7 dias grátis