busca

Splish Splash

Roberto Carlos

Tom: A
Intro: A
Nela dentro....
E|--------------------|
B|--------------------|
G|--------------------| (4x)
D|-------------4------| onde se toca "A”
A|-----4-4-7-7---7----|
E|-5-5----------------|

Só porque....
E|------------------------|
B|------------------------|
G|------------------------| onde se toca "B7”
D|-----------------9------|
A|-------9-9-12-12---12---|
E|-10-10------------------|

...amando.
E|----------------------|
B|----------------------|
G|----------------------| onde se toca "E”
D|----------------------|
A|-7-7-5-5-4-4----------|
E|-------------7-7-5----|

A
Splish Splah
Fez o beijo que eu dei
Nela dentro do cinema
Todo mundo olhou me condenando
B7                   E7
Só porque eu estava amando
   A
Agora lá em casa
Todo mundo vai saber
      D
Que o beijo que eu dei nela
      D#dim
Fez barulho sem querer
  A
Iêa
A
Splish Splash
F#m
Todo mundo olhou
    B7           B7
Mas com água na boca
       A
Muita gente ficou
Iê, Iê, Splish Splash
Iê, Iê, Splish Splash
Splish Splah
D                  A
Iê, Iê, Splish Splash
                E7 D A E7
Splish Splash
A
Splish Splah
Fez o tapa que eu levei
Dela dentro do cinema
Todo mundo olhou me condenando
B7                       E7
Só porque eu estava apanhando
    A
Agora lá em casa todo mundo vai saber
     D
Que tapa que eu levei
      D#dim
Fez barulho e fez doer
  A
Iêa
A
Splish Splash
F#m
Todo mundo olhou
    B7           B7
Mas com água na boca
         A
Ninguém mais ficou
Iê, Iê, Splish Splash
Iê, Iê, Splish Splash
Splish Splah
D                  A
Iê, Iê, Splish Splash
                E7 D A E7
Splish Splash

Clipes

Cifra Club Pro

Aproveite o Cifra Club com benefícios exclusivos e sem anúncios
7 dias grátis
Cifra Club Pro
Aproveite o Cifra Club com benefícios exclusivos e sem anúncios
7 dias grátis