busca

Tão Somente Uma Vez

Roberto Carlos

Tom: D
[Intro] 

E|-----------------------------------------|
B|-----------------------------------------|
G|-------------------------32--------------|
D|--4-4--4-4--4-2--4-4--4-2-4--------4-4---|
A|-----------------------------------------|
E|-----------------------------------------|

D                D D7M D7M
Tão somente uma vez
        Em  A7 Em
Amei na vida
       A7        Em A7 Em A7
Tão somente uma vez
  D         D D7M
E nunca mais
   D           D7M            F#m
Uma vez, nada mais, em meus olhos!
 Bm7             Em A7 Em A7
Brilhou a esperança
   Am7            A7      Em
Esperança que alegra o caminho
    A7        D D7M D D7M
Da cruel solidão
     D       D7M  D D7M
Uma vez nada mais
               Em  A7 Em
Se entrega a alma 
A7            Em
Com a doce e total 
   A7     D D7M D
Renunciação
           D      D7M
E quando esse milagre
F#m      Bm7           Em   A7 Em
Abre as portas do amor desejado
 A7  Am7      A7
Há alegria e festas
     Em        A7      D
Que cantam, no meu coração!

[Solo]

E|-----------------------------------------|
B|-----------------------------------------|
G|-------------------------32--------------|
D|--4-4--4-4--4-2--4-4--4-2-4--------4-4---|
A|-----------------------------------------|
E|-----------------------------------------|
 
D                D D7M D7M
Tão somente uma vez
        Em  A7 Em
Amei na vida
       A7        Em A7 Em A7
Tão somente uma vez
  D         D D7M
E nunca mais
   D           D7M            F#m
Uma vez, nada mais, em meus olhos!
 Bm7             Em   A7    Em A7
Brilhou a esperança          
Am7            A7      Em
   Esperança que alegra o caminho
    A7        D D7M D D7M
Da cruel solidão
     D       D7M  D D7M
Uma vez nada mais
               Em  A7 Em
Se entrega a alma 
A7            Em
Com a doce e total 
   A7     D D7M D
Renunciação
           D      D7M
E quando esse milagre
F#m      Bm7           Em   A7 Em
Abre as portas do amor desejado
 A7  Am7      A7
Há alegria e festas
     Em        A7      D
Que cantam, no meu coração!

Clipes

Cifra Club Pro

Aproveite o Cifra Club com benefícios exclusivos e sem anúncios
7 dias grátis
Cifra Club Pro
Aproveite o Cifra Club com benefícios exclusivos e sem anúncios
7 dias grátis