busca

Car Wash Intro

Rose Royce

Tom: D
This is my 1st tab so its not great but its ok i guess.
notes in () are optional cuz u can barely hear them in the song

E|------10---8-8-10-10-8-(8)-(10-------|
A|-------------------------------------|
D|-------------------------------------|      play this 7 times
G|-------------------------------------|
B|-------------------------------------|
E|-------------------------------------|


Main riff:
E|---10--10--10-10-----------------------|
A|---10--10--10-10-----------------------|
D|---10--10--10-10-----------------------|
G|----------------  play this until 2:25-| in the song
B|---------------------------------------|
E|---------------------------------------|


E|---10-9-7---|
A|------------|
D|------------|
G|------------| play 3 times
B|------------|
E|------------|


E|--10-10-10----9-9-9-|
A|--------------------|
D|--------------------|
G|--------------------|play this once and then play main riff until the end of
B|--------------------|the song
E|--------------------|

Clipes