Pretty Woman Intro

Roy Orbison

Tom: G

E|--------------------------------
B|--------------------------------
G|--------------------------------
D|--------------------------------
A|-----------2-5-------------2-5--
E|----0-0-4-----------0-0-4-------

E|---------------------             
B|---------------------             
G|---------------------             
D|-------------4-2------            
A|---------2-5-----5----   (repete) 
E|--0-0-4---------------            



Composição: Colaboração e revisão: Mauricio Martins