busca

Oh, Pretty Woman

Roy Orbison

Tom: E
Pretty Women


e----------------------------------------------------------
b----------------------------------------------------------
g----------------------------------------------------------
d------------0------------------0------------------0--4-2-0
a---------2------------------2------------------2----------
e--0-0-4-------------0-0-4---------------0-0-4-------------

e-----------------------------------------
b-----------------------------------------
g-----------------------------------------
d-----------0-4-2-0--------------0-4-2-0--
a--------2-------------------2------------
e-0-0-4---------------0-0-4---------------

A                        F#m             
       A                    F#m
       D                  E
                                    E7
No One can Look as good as you

(mercy)

       A                   F#m
       A                   F#m
       D                      E 
                                 E7
Are you lonely just like me

(growl)

Dm            G
C            Am 
Dm           G7                 C
Dm           G             
Pretty woman Yeah Yeah Yeah
C            Am
Dm           G7                   C         A
Pretty Women Say you'll stay with me
        F#m              Dm                E        A
Cause I need you            I'll treat you right
             F#m         Dm           E7
Come with me baby           Be mine tonight
       A              F#m      
       A              F#m
       D              E

If thats the way it must be okay

I guess I'll go on home   Its late

There'll be tomorrow night but wait
                   E7
what do i see

Is she walking back to me yeah 

shes walking back to me
             A
Oh ho pretty woman

Clipes

Cifra Club Pro

Aproveite o Cifra Club com benefícios exclusivos e sem anúncios
Cifra Club Pro
Aproveite o Cifra Club com benefícios exclusivos e sem anúncios