busca

Oh, Pretty Woman

Roy Orbison

[Introdução] 

Parte 1 (2x)
G|----------------------------------------------|
D|-----------4----------------4-----------------|
A|---------5---7-5----------5---7-5-------------|
E|-0-0-4-7----------0-0-4-7---------------------|

[Primeira parte]

Pretty woman, walkin' down the street...

Parte 1 de 4
G|----------------------------------------------|
D|----------------------------------------------|
A|------4-7-8-9--9---9---------4-7-8-9--9---9-7-|
E|-5--5------------9---9--5--5------------9-----|

G|----------------------------------------------|
D|----------------------------------------------|
A|-5-5-----5-5--7-7-----7-7-----7-7------7-7----|
E|-----5-5----------7-7-----7-7-----7-7------7--|

Parte 2 de 4 (2x)
G|----------------------------------------------|
D|-----------4----------------4-----------------|
A|---------5---7-5----------5---7-5-------------|
E|-0-0-4-7----------0-0-4-7---------------------|

Parte 3 de 4
G|----------------------------------------------|
D|----------------------------------------------|
A|------4-7-8-9--9---9---------4-7-8-9--9---9-7-|
E|-5--5------------9---9--5--5------------9-----|

G|----------------------------------------------|
D|----------------------------------------------|
A|-5-5-----5-5--7-7-----7-7-----7-7------7-7----|
E|-----5-5----------7-7-----7-7-----7-7------7-7|

Parte 4 de 4
G|----------------------------------------------|
D|-----------4----------------4-----------------|
A|---------5---7-5----------5---7-5-------------|
E|-0-0-4-7----------0-0-4-7---------------------|

G|----------------------------------------------|
D|-----------4----------------------------------|
A|---------5---7-5------------------------------|
E|-0-0-4-7--------------------------------------|

G|----------------------------------------------|
D|----------------------------------------------|
A|----------------------------------------------|
E|-0-0-0-0--0-0-0-0-----------------------------|


[Segunda parte]

Pretty woman, stop awhile...

Parte 1 de 4 
G|----------------------------------------------|
D|-------7-5-3-2-------2------------------------|
A|-5-7-8---------5-3-3---3-2-------7------------|
E|---------------------------5-7-8--------------|

G|----------------------------------------------|
D|-------7-5-3-2-----2-5---2-5------------------|
A|-5-7-8---------5-3-----3----------------------|
E|----------------------------------------------|

Parte 2 de 4
G|----------------------------------------------|
D|-------7-5-3-2-------2------------------------|
A|-5-7-8---------5-3-3---3-2-------7------------|
E|---------------------------5-7-8--------------|

G|----------------------------------------------|
D|-------7-5-3-2-------2------------------------|
A|-5-7-8---------5-3-3---3-2--------------------|
E|----------------------------------------------|

Parte 3 de 4
G|----------------------------------------------|
D|----------------------------------------------|
A|-----4-7-8-9--9---9-7-5--5-8-8--7-5-4---------|
E|-5-5------------9---------------------7-------|

G|----------------------------------------------|
D|----------------------------------------------|
A|-----4-7-8-9--9---9-7-5--5-8-8----------------|
E|-5-5------------9-----------------------------|

Parte 4 de 4 (2x)
G|----------------------------------------------|
D|-----------4----------------4-----------------|
A|---------5---7-5----------5---7-5-------------|
E|-0-0-4-7----------0-0-4-7---------------------|


[Terceira parte]

Pretty woman, walkin' down the street...

Parte 1 de 3
G|----------------------------------------------|
D|----------------------------------------------|
A|------4-7-8-9--9---9---------4-7-8-9--9---9-7-|
E|-5--5------------9---9--5--5------------9-----|

G|----------------------------------------------|
D|----------------------------------------------|
A|-5-5-----5-5--7-7-----7-7-----7-7------7-7----|
E|-----5-5----------7-7-----7-7-----7-7---------|

G|----------------------------------------------|
D|----------------------------------------------|
A|-----7-7-----7-7-----7-7-----7-7-----7-7------|
E|-7-7-----7-7-----7-7-----7-7-----7-7-----7-7--|

G|----------------------------------------------|
D|----------------------------------------------|
A|-7-7-----7-7----------------------------------|
E|-----7-7-----7-7--0---------------------------|

Introdução 2 (Final)

Parte 1 de 2 (4x)
G|----------------------------------------------|
D|-----------4----------------4-----------------|
A|---------5---7-5----------5---7-5-------------|
E|-0-0-4-7----------0-0-4-7---------------------|

Parte 2 de 2 
G|----------------------------------------------|
D|-----------4----------------------------------|
A|---------5---7-5------------------------------|
E|-0-0-4-7----------5-5-------------------------|

Clipes

Cifra Club Pro

Aproveite o Cifra Club com benefícios exclusivos e sem anúncios
Cifra Club Pro
Aproveite o Cifra Club com benefícios exclusivos e sem anúncios