busca

Oh, Pretty Woman

Roy Orbison

|-------------|
|---------0-3-|
|-------2-----|
|-3-3---------|

|-------------|
|---------0-3-|
|-------2-----|
|-3-3---------|

|-----------2-0---|
|-------0-3-----3-|
|-----2-----------|
|-3-3-------------|

|-----------2-0---|
|-------0-3-----3-|
|-----2-----------|
|-3-3-------------|

|-----------2-0---|
|-------0-3-----3-|
|-----2-----------|
|-3-3-------------|
	      
|-----------2-0---|
|-------0-3-----3-|
|-----2-----------|
|-3-3-------------|

|-------0----------------0-|
|-----2--------2-------2---|
|-3-3-----0-0----0-3-3-----|
|--------------------------|

|-------------------------|
|-----2---3-3-----3-3-----|
|-0-0---0-----3-3-----3-3-|
|-------------------------|

|-0-0-----0-0-----0-0-----|
|-----0-0-----0-0-----0-0-|
|-------------------------|
|-------------------------|

|-0-0-----|
|-----0-0-|
|---------|
|---------|

|-----------2-0---|
|-------0-3-----3-|
|-----2-----------|
|-3-3-------------|

|-----------2-0---|
|-------0-3-----3-|
|-----2-----------|
|-3-3-------------|

|-----------2-0---|
|-------0-3-----3-|
|-----2-----------|
|-3-3-------------|

|-----------2-0---|
|-------0-3-----3-|
|-----2-----------|
|-3-3-------------|

|-------0----------------0-|
|-----2--------2-------2---|
|-3-3-----0-0----0-3-3-----|
|--------------------------|

|-------------------------|
|-----2---3-3-----3-3-----|
|-0-0---0-----3-3-----3-3-|
|-------------------------|

|-0-0-----0-0-----0-0-----|
|-----0-0-----0-0-----0-0-|
|-------------------------|
|-------------------------|

|-0-0-----|
|-----0-0-|
|---------|
|---------|


|-----------2-0---|
|-------0-3-----3-|
|-----2-----------|
|-3-3-------------|

|-----------2-0---|
|-------0-3-----3-|
|-----2-----------|
|-3-3-------------|

|-----------2-0---|
|-------0-3-----3-|
|-----2-----------|
|-3-3-------------|

|-----------2-0---|
|-------0-3-----3-|
|-----2-----------|
|-3-3-------------|

|-----0-0-|
|---------|
|---------|
|-3-3-----|

|---0-1-5---1-0---|
|-3-------------3-|
|---------1-------|
|-----------------|

|-----0----------0-|
|-1-1---1-0---0-1--|
|-----------3------|
|------------------|

|---0-1-5---1-0---|
|-3-------------3-|
|---------1-------|
|-----------------|

|---0-3---0---0---|
|-1-----1---1---4-|
|-----------------|
|-----------------|

|---0-1-5---1-0---|
|-3-------------3-|
|---------1-------|
|-----------------|

|-----0----------0-|
|-1-1---1-0---0-1--|
|-----------3------|
|------------------|

|---0-1-5---1-0---|
|-3-------------3-|
|---------1-------|
|-----------------|

|-----0----------0-1-|
|-1-1---1-0---0-2----|
|-----------3--------|
|--------------------|

|-2-2---2-0-----1-1-|
|-----2-----3-3-----|
|-------------------|
|-------------------|

|-0-0-----------0-2-2---2-0---------|
|-----2-0-----2-------2-----3---3-3-|
|---------3-3-----------------3-----|
|-----------------------------------|

|-----------2-0---|
|-------0-3-----3-|
|-----2-----------|
|-3-3-------------|

|-----------2-0---|
|-------0-3-----3-|
|-----2-----------|
|-3-3-------------|

|-----------2-0---|
|-------0-3-----3-|
|-----2-----------|
|-3-3-------------|

|-----------2-0---|
|-------0-3-----3-|
|-----2-----------|
|-3-3-------------|

|-------0----------------0-|
|-----2--------2-------2---|
|-3-3-----0-0----0-3-3-----|
|--------------------------|

|-------------------------|
|-----2---3-3-----3-3-----|
|-0-0---0-----3-3-----3-3-|
|-------------------------|

|-0-0-----0-0-----0-0-----|
|-----0-0-----0-0-----0-0-|
|-------------------------|
|-------------------------|

|-0-0-----0-0-----0-0-----|
|-----0-0-----0-0-----0-0-|
|-------------------------|
|-------------------------|

|-0-0-----0-0-----0-0-------|
|-----0-0-----0-0-----0-0---|
|---------------------------|
|-------------------------3-|

|-------------|
|---------0-3-|
|-------2-----|
|-3-3---------|

|-------------|
|---------0-3-|
|-------2-----|
|-3-3---------|

|-----------2-0---|
|-------0-3-----3-|
|-----2-----------|
|-3-3-------------|

|-----------2-0---|
|-------0-3-----3-|
|-----2-----------|
|-3-3-------------|

|-----------2-0---|
|-------0-3-----3-|
|-----2-----------|
|-3-3-------------|
	      
|-----------2-0---|
|-------0-3-----3-|
|-----2-----------|
|-3-3-------------|

|-----------2-0---|
|-------0-3-----3-|
|-----2-----------|
|-3-3-------------|

|-----------2-0---|
|-------0-3-----3-|
|-----2-----------|
|-3-3-------------|

|-----------2-0---|
|-------0-3-----3-|
|-----2-----------|
|-3-3-------------|

|-----------2-0---|
|-------0-3-----3-|
|-----2-----------|
|-3-3-------------|

|-----|
|-----|
|-3-3-|
|-----|

Clipes

Cifra Club Pro

Aproveite o Cifra Club com benefícios exclusivos e sem anúncios
Cifra Club Pro
Aproveite o Cifra Club com benefícios exclusivos e sem anúncios