busca

Oh, Pretty Woman

Roy Orbison

SUBJECT: BTAB: pretty woman
FROM: CYBERBASSIST@*

Intro:
                                                                          X4
G |-------|-------|-------|-------|-----------------------------------------|
D |-------|-------|-------|-------|*---------------4--2--0-----------------*|
A |-------|-------|-------|-------|*------------5--------------------------*|
E |-------|-------|-------|-------|-0--0--3--5------------------------------|

Riff1:
                        X2
G |-----------------------|-------------------------------------------------|
D |*------------4--4-----*|-------------------------------------------------|
A |*-----4--7-------4--7-*|-5--5--5-5/7--7---7-7---7-7---7-7----------------|
E |--5--5-----------------|-----55--------77----77----77----77--------------|

(intro X4)
(riff1)
(intro X4 (last time hold E)

Bridge:
                                            1.                            2.
G |-------------------------------------------|-----------------------------|
D |*-----3--5---5-5-3-------2--5-2-----------*|------4--7-------------------|
A |*--5-5------------5---3-3------------3--7-*|----5------------------------|
E |----------------------------------5-5------|-----------------------------|

(...cause i need you...)

G |-------------------------------------------------------------------------|
D |---4--4-2------------------------------------4--4--4-2----3---3----------|
A |----4------------5--8--5--7----5-------4--7------4------5---5------------|
E |---------------------------------7--5------------------------------------|


Listen to the song for perfect timing and song structure...
Any correction. Comments?  email me at *

enjoy!

Clipes

Cifra Club Pro

Aproveite o Cifra Club com benefícios exclusivos e sem anúncios
Cifra Club Pro
Aproveite o Cifra Club com benefícios exclusivos e sem anúncios