Menino da Porteira

Sérgio Reis

A
123
X02220
D
123
XX0232
E
123
022100
Tom: G
[Intro] E  A  E  A  E  A  E  A  E  A

#1t1#Parte 1 de 3
#1t2#E|-10-10-10--9-----------------------------------------|
B|-12-12-12--10--5-5-5--7-9-7-5-3--2-2--3-2------------|
G|---------------6-6-6--7-9-7-6-4--2-2--4-2------------|
D|-----------------------------------------------------|
A|-----------------------------------------------------|
E|-----------------------------------------------------|#/1t2##/1t1#

#2t1#Parte 2 de 3
#2t2#E|-10-10-10--9---9-9-9--10-12-10-9-7--5-5-7-5----------|
B|-12-12-12--10----------------------------------------|
G|---------------9-9-9--11-13-11-9-7--6-6-7-6----------|
D|-----------------------------------------------------|
A|-----------------------------------------------------|
E|-----------------------------------------------------|#/2t2##/2t1#

#3t1#Parte 3 de 3
#3t2#E|-10-10-10--9-----------------------------------------|
B|-12-12-12--10----------------------------------------|
G|-----------------------------------------------------|
D|-----------------------------------------------------|
A|-----------------------------------------------------|
E|-----------------------------------------------------|#/3t2##/3t1#

[Primeira parte]

A
  Toda vez que eu viajava 
                      E
Pela estrada de Ouro Fino

De longe eu avistava 
                  A
A figura de um menino

Que corria abrir a porteira 
                     E
E depois vinha me pedindo

Toque o berrante, seu moço 
          D     E     A
Que é pra eu ficar ouvindo

[Segunda parte]

       D
Quando a boiada passava 
                  E
E a poeira ia baixando
                                  A
Eu jogava uma moeda e ele saía pulando

Obrigado, boiadeiro
                        E
Que Deus vá lhe acompanhando

Pra aquele sertão afora 
        D     E    A
Meu berrante ia tocando

( E  A  E  A  E  A  E  A  E  A )

#4t1#Parte 1 de 3
#4t2#E|-10-10-10--9-----------------------------------------|
B|-12-12-12--10--5-5-5--7-9-7-5-3--2-2--3-2------------|
G|---------------6-6-6--7-9-7-6-4--2-2--4-2------------|
D|-----------------------------------------------------|
A|-----------------------------------------------------|
E|-----------------------------------------------------|#/4t2##/4t1#

#5t1#Parte 2 de 3
#5t2#E|-10-10-10--9---9-9-9--10-12-10-9-7--5-5-7-5----------|
B|-12-12-12--10----------------------------------------|
G|---------------9-9-9--11-13-11-9-7--6-6-7-6----------|
D|-----------------------------------------------------|
A|-----------------------------------------------------|
E|-----------------------------------------------------|#/5t2##/5t1#

#6t1#Parte 3 de 3
#6t2#E|-10-10-10--9-----------------------------------------|
B|-12-12-12--10----------------------------------------|
G|-----------------------------------------------------|
D|-----------------------------------------------------|
A|-----------------------------------------------------|
E|-----------------------------------------------------|#/6t2##/6t1#

[Terceira parte]

A
  Nos caminhos desta vida 
                          E
Muitos espinhos eu encontrei

Mas nenhum calou mais fundo 
                       A
Do que esse eu passei

Na minha viagem de volta 
                      E
Qualquer coisa eu cismei

Vendo a porteira fechada
     D       E    A
O menino não avistei

[Quarta parte]

   D
Apeei do meu cavalo 
                         E
E no ranchinho à beira chão

Vi uma mulher chorando
                     A
Quis saber qual a razão

Boiadeiro veio tarde
                     E
Veja a cruz no estradão

Quem matou o meu filhinho 
        D       E   A
Foi um boi sem coração

( E  A  E  A  E  A  E  A  E  A )

#7t1#Parte 1 de 3
#7t2#E|-10-10-10--9-----------------------------------------|
B|-12-12-12--10--5-5-5--7-9-7-5-3--2-2--3-2------------|
G|---------------6-6-6--7-9-7-6-4--2-2--4-2------------|
D|-----------------------------------------------------|
A|-----------------------------------------------------|
E|-----------------------------------------------------|#/7t2##/7t1#

#8t1#Parte 2 de 3
#8t2#E|-10-10-10--9---9-9-9--10-12-10-9-7--5-5-7-5----------|
B|-12-12-12--10----------------------------------------|
G|---------------9-9-9--11-13-11-9-7--6-6-7-6----------|
D|-----------------------------------------------------|
A|-----------------------------------------------------|
E|-----------------------------------------------------|#/8t2##/8t1#

#9t1#Parte 3 de 3
#9t2#E|-10-10-10--9-----------------------------------------|
B|-12-12-12--10----------------------------------------|
G|-----------------------------------------------------|
D|-----------------------------------------------------|
A|-----------------------------------------------------|
E|-----------------------------------------------------|#/9t2##/9t1#

[Quinta parte]

A
  Lá pras bandas de Ouro Fino 
                 E
Levando gado selvagem

Quando passo na porteira 
                 A
Até vejo a sua imagem

O seu rangido tão triste 
                    E
Mais parece uma mensagem

Daquele rosto trigueiro 
     D     E       A
Desejando-me boa viagem

[Sexta parte]

    D
A cruzinha no estradão 
                   E
Do pensamento não sai

Eu já fiz um juramento 
                   A
Que não esqueço jamais

Nem que o meu gado estoure
                     E
Que eu precise ir atrás

Neste pedaço de chão 
    D            E    A
Berrante eu não toco mais

( E  A  E  A  E  A  E  A  E  A )

#10t1#Parte 1 de 3
#10t2#E|-10-10-10--9-----------------------------------------|
B|-12-12-12--10--5-5-5--7-9-7-5-3--2-2--3-2------------|
G|---------------6-6-6--7-9-7-6-4--2-2--4-2------------|
D|-----------------------------------------------------|
A|-----------------------------------------------------|
E|-----------------------------------------------------|#/10t2##/10t1#

#11t1#Parte 2 de 3
#11t2#E|-10-10-10--9---9-9-9--10-12-10-9-7--5-5-7-5----------|
B|-12-12-12--10----------------------------------------|
G|---------------9-9-9--11-13-11-9-7--6-6-7-6----------|
D|-----------------------------------------------------|
A|-----------------------------------------------------|
E|-----------------------------------------------------|#/11t2##/11t1#

#12t1#Parte 3 de 3
#12t2#E|-10-10-10--9-----------------------------------------|
B|-12-12-12--10----------------------------------------|
G|-----------------------------------------------------|
D|-----------------------------------------------------|
A|-----------------------------------------------------|
E|-----------------------------------------------------|#/12t2##/12t1#
Composição: Luizinho / Teddy VieiraColaboração e revisão: Caico AntunesGetúlio Vasconcelosgwstvo@hotmail.com.brMurillo Silvae mais 7
Videoaula MENINO DA PORTEIRA (aula de violão completa)