La Pastillita

Sergio Vargas

Tom: G
INTRO:
SON LOS ACORDES DE D MAYOR Y A MAYOR
 ARPEGIAC S:
ESTO 2 VECES:

E|----------------------------0---
B|----3----------3--------2-3-----
G|--2---2------2---2----2---------
d|0-------0-0---------2-----------
A|--------------------------------
E|--------------------------------

E|-0-0-| 
B|-2-2-| 
G|-2-2-| 
d|-2-2-| 
A|-0-0-| 
E|-0-0-| 



LO ANTERIOR MÁS UNA SEGUNDA GUITARRA (2 VECES):

E|----------2-2-------------0-0| 
B|----3-----3-3-------2-----2-2| 
G|--2---2---2-2-----2---2---2-2| 
d|0-------0-0-0---2-------2-2-2| 
A|-----------------------------| 
E|-----------------------------| 



Ay Dios mío que bonito es sentirse enamorado

E|-------------------------------
B|-------------------------3-3-0-
g|2-0---0-2-0---0-2--2-2-2-------
D|----3-------3------------------
A|-------------------------------
E|-------------------------------

E|-| 
B|0| 
g|-| 
D|-| 
A|-| 
E|-| 



Tener a la persona que uno quiere siempre a su lado

E|--0---0---0---0----------------
b|3---3---3---3---3-2-2--2-3-0---
G|-----------------------------2-
D|-------------------------------
A|-------------------------------
E|-------------------------------

E|--| 
b|--| 
G|2-| 
D|--| 
A|--| 
E|--| 


Disfrutar cada momento, cada 
segundo, cada espacio de tiempo


E|-------------------------------
B|-------------------------------
G|-0-2-3-2-0-2-3-3-2-0-2-3-3-3-3-
D|-------------------------------
A|-------------------------------
E|-------------------------------

E|--0-0-2--| 
B|3-------3| 
G|---------| 
D|---------| 
A|---------| 
E|---------| 



Ser los dos en uno solo hasta donde nos lleve el viento

E|-3-2-0-------0-0---0-0-0-0-0-3-
B|-------3-3-3-------------------
G|-------------------------------


PD-E STRIBILLO:


No sé que me diste porque no puedo estar sin ti

E|-----------------2-2-2-2-0--| 
b|3-0---0-3-3----3-----------3| 
G|----2--------2--------------| 
D|----------------------------| 



Hace tiempo quería decirte que lo mismo me pasa a mí eh!

E|-2-5-3-3-3-3-2-0-0--0-3-2-2-2-2-
B|--------------------------------
G|--------------------------------

E|0--| 
B|--3| 
G|---| 


No sé que me diste porque no puedo estar sin ti

E|-----------------2-2-2-2-0--| 
b|3-0---0-3-3----3-----------3| 
G|----2--------2--------------| 
D|----------------------------| 



Cuando yo estoy a tu lado me siento un hombre feliz

E|-2-5-3-3-3-3-2-0-0--3-2-2-2-2-0-
B|--------------------------------
G|--------------------------------

E|-| 
B|3| 
G|-| 



No sé que me diste porque no puedo estar sin ti

E|-----------------2-2-2-2-0--| 
b|3-0---0-3-3----3-----------3| 
G|----2--------2--------------| 
D|----------------------------| 



Me gusta cómo me besas yo sin ti n
E|-5-3-3-3-3-2-0-0--0-3-2-2-2-2-0-
B|--------------------------------
G|--------------------------------
  o se vivir.
E||  
B|3| 
G||  



No sé que me diste porque no puedo estar sin ti

E|-----------------2-2-2-2-0--| 
b|3-0---0-3-3----3-----------3| 
G|----2--------2--------------| 
D|----------------------------| 
A|----------------------------| 



A mí se me olvida todo cuando yo estoy junto a ti

E|-5-3-3-3-3-2-0-0--0-3-2-2-2-2-0-
B|--------------------------------

E||  
B|3| 


Bembelen bem bem (3X)
Bem Bem Bem


E|---------------0---------------
b|3-3-3---3---3----2-2-2---2---2-
G|------2---2------------2---2---
D|-------------------------------

E|---------------------0| 
b|3-0-0-0----0---0---2--| 
G|---------0---0---2----| 
D|----------------------| 


ESTRIBILLO:


Tú eres la mujer que yo quiero tú eres la que me hace feliz

E|-2-2-2-2-2-2-2-2-3-3--3-3-3-0-0-
B|--------------------------------
G|--------------------------------



Y sin tu cariño mami te juro yo no sé vivir

e|2-5-3-2-0-----------0-2-0------|
B|---------3--3-3-3-3-------3-2-3|
G|-------------------------------|

e| 
B| 
G| 



Eres tú mi medicina la que me sana y que me alivia

E|-2-2-2-2-2-2-3-3--3-3-3-0-0-0-0-
B|--------------------------------
G|--------------------------------

E|2--|  
B|---3| 
G|---|  



La que me lo cura todo sin yo beberme una pastilla

e|2-5-3-2-0--------0-2-0---------|
B|---------3-3-3--3-----3-2-2-3-3|
G|-------------------------------|

e| 
B| 
G| 



Cuando te veo me contento cuando te vas me pongo triste

E|-2-2-2-2-2-2-2-2-3-3--3-3-3-0-0-
B|--------------------------------
G|--------------------------------

E|0-0-2--|  
B|-------3| 
G|-------|  



Que no comprendo cariñito que fue lo que tú a mi me hiciste

e|2-2-5-3-2-0------------0-2-0----
B|------------3-3-3--3-3------3-2-
G|--------------------------------

e|---| 
B|3-3| 
G|---| 


Ay dios mío que bonito es sentirse enamorado e|2-2-2-2-2-0-------------------| B|-----------3-2-0-0-0-0--------| G|-----------------------2---2--| D|-------------------------2---4| A|------------------------------| E|------------------------------| Tener a la persona que uno quiere siempre a su lado E|-2-2-2-2-2-0----------------0-| B|-------------3-2-0-0------2--3| G|----------------------2-2-----| D|------------------------------| A|------------------------------| E|------------------------------| INTERMEDIO I: (2 VECES) E|--2-2----2-2----2-2---3-3---3-3- b|3-----3-------3-----3-----3----- G|-------------------------------- D|-------------------------------- A|-------------------------------- E|-------------------------------- E|--5-3-2| b|3------| G|-------| D|-------| A|-------| E|-------| A su lado… (2 VECES), Y BG UE COMO FONC PARA EL D STO DEL INTERMEDIO I E|-------------------------------- B|----3-----3-----3-----3-----3--- G|--2-----2-----2-----2-----2----- d|4-----4-----4-----4-----4-----4- A|-------------------------------- E|-------------------------------- E|---------| B|--3---3-3| G|2-----2-2| d|----4----| A|---------| E|---------| (2 VECES) E|---------------------| B|--2-5-3-2-----0-3-0-2| g|3-----------3--------| D|---------------------| A|---------------------| E|---------------------| (2 VECES) E|----------2-2-------------0-0| B|----3-----3-3-------2-----2-2| G|--2---2---2-2-----2---2---2-2| d|0-------0-0-0---2-------2-2-2| A|-----------------------------| E|-----------------------------| INTERMEDIO II ESTO 2 VECES: E|----------------------------0-| B|----3----------3--------2-3---| G|--2---2------2---2----2-------| d|0-------0-0---------2---------| A|------------------------------| E|------------------------------| Anaisa... Cuida a este negro, (2 VECES) Échame agua bendita e|2-2--2-2--2-2--2-0----| b|3-3--3-3--3-3--3---3-2| G|----------------------| (2 VECES) E|-------------------------------- B|----3-----3-----3-----3-----3--- G|--2-----2-----2-----2-----2----- d|4-----4-----4-----4-----4-----4- A|-------------------------------- E|-------------------------------- E|-----------| B|--3-3-----3| G|2-----2--2-| d|--------4--| A|-----------| E|-----------| Anaisa... Cuida a este negro. Échale agua bendita! Bembelen bem bem (3X) Bem Bem Bem E|---------------0--------------- b|3-3-3---3---3----2-2-2---2---2- G|------2---2------------2---2--- D|------------------------------- E|---------------------0| b|3-0-0-0----0---0---2--| G|---------0---0---2----| D|----------------------| ESTRIBILLO (2 VECES): Tú eres la persona que yo quiero tú eres la que me hace feliz E|-2-2-2-2-2-2-2-2-2-3-3--3-3-3-0- B|-------------------------------- G|-------------------------------- E|0-0-0-2| B|-------| G|------| Y sin tu cariño mami te juro yo no se vivir e|2-5-3-2-0-----------0-2-0------| B|---------3--3-3-3-3-------3-2-3| G|-------------------------------| e| B| G| Eres tu mi medicina la que me sana y que me alivia E|-2-2-2-2-2-2-3-3--3-3-3-0-0-0-0- B|-------------------------------- G|-------------------------------- E|2--| B|---3| G|---| La que me lo cura todo sin yo beberme una pastilla e|2-5-3-2-0--------0-2-0---------| B|---------3-3-3--3-----3-2-2-3-3| G|-------------------------------| e| B| G| Cuando te veo me contento cuando te vas me pongo triste E|-2-2-2-2-2-2-2-2-3-3--3-3-3-0-0- B|-------------------------------- G|-------------------------------- E|0-0-2--| B|-------3| G|-------| Que no comprendo cariñito que fue lo que tú a mi me hiciste e|2-2-5-3-2-0------------0-2-0---- B|------------3-3-3--3-3------3-2- G|-------------------------------- e|---| B|3-3| G|---| Ay dios mío que bonito es sentirse enamorado e|2-2-2-2-2-0-------------------| B|-----------3-2-0-0-0-0--------| G|-----------------------2---2--| D|-------------------------2---4| A|------------------------------| E|------------------------------| Tener a la persona que uno quiere siempre a su lado E|-2-2-2-2-2-0----------------0-| B|-------------3-2-0-0------2--3| G|----------------------2-2-----| D|------------------------------| A|------------------------------| E|------------------------------| INTERMEDIO I: (2 VECES) E|--2-2----2-2----2-2---3-3---3-3- b|3-----3-------3-----3-----3----- G|-------------------------------- D|-------------------------------- A|-------------------------------- E|-------------------------------- E|--5-3-2| b|3------| G|-------| D|-------| A|-------| E|-------| A su lado… (2 VECES), Y BG UE COMO FONC PARA EL D STO DEL INTERMEDIO I E|-------------------------------- B|----3-----3-----3-----3-----3--- G|--2-----2-----2-----2-----2----- d|4-----4-----4-----4-----4-----4- A|-------------------------------- E|-------------------------------- E|---------| B|--3---3-3| G|2-----2-2| d|----4----| A|---------| E|---------| (2 VECES) E|---------------------| B|--2-5-3-2-----0-3-0-2| g|3-----------3--------| D|---------------------| A|---------------------| E|---------------------| (2 VECES) E|----------2-2-------------0-0| B|----3-----3-3-------2-----2-2| G|--2---2---2-2-----2---2---2-2| d|0---------0-0---2---------2-2| A|-----------------------------| E|-----------------------------| (2 VECES)Y DE FONC HASTA EL FINAL E|-------------------------------- B|----3-----3-----3-----3-----3--- G|--2-----2-----2-----2-----2----- d|4-----4-----4-----4-----4-----4- A|-------------------------------- E|-------------------------------- E|-----------| B|--3-3-----3| G|2-----2--2-| d|--------4--| A|-----------| E|-----------| (2 VECES) e|2-2--2-2--2-2--2-0----| b|3-3--3-3--3-3--3---3-2| G|----------------------| (2 VECES) E|---------------------| B|--2-5-3-2-----0-3-0-2| g|3-----------3--------| D|---------------------| A|---------------------| E|---------------------| E|------------2-----2-5-10| B|----3----3------3-------| G|--2----2------2---------| d|4-----------------------| A|------------------------| E|------------------------|
Composição: Colaboração e revisão:

Utilizamos cookies para personalizar sua experiência. Ao acessar o site, você concorda com a nossa Política de Privacidade.