busca

Bola de Meia

Seu Jorge

Tom: E
e||---------------1-----------0---------1-1-1------------------5-----||
B||-----0-----3---0-----6-----1---------0-3-0------8-----8-----3-----||
G||-----5-----0---2-----7---0-----1-0---2-2-1------9-----9---4-------||
D||---5-----2---0-----6---------------0---------10-----7---0---------||
A||-0-----3---------8-----------0---0---------0----------------------||
E||-----------------------0---------------0-0--------8---------------||




                                    tanto tempo
e||-----1-----0-0-0-----1-1-1-1-1--|---------------3---5------------||
B||-----3-----1-1-1-----0-----0----|-----0-------3---2-2-----1------||
G||---1-----0---1-0---2---2---1----|-----5-----0-----2-0-----2------||
D||-3-----2---------0--------------|---5-----0-------2-2---0--------||
A||-------------0-0----------------|-0---------------0-0------------||
E||-----------------------0---0----|-------0-------------1----------||


6

    eu tentando         acontece
e||-1-1-0-0----------------------------------------------------------||
B||-1-1-0-------5-----0-----5-----5-----5-----3-----3-----1---------0||
G||-2-2-2---2---7-----5-----3-----3-----2-----2-----2-----0-------1--||
D||-0-----------6---5-----5-----5-----5-----0-----0-----2-------0----||
A||---3-2---------0-----4-----4-----4-------------------------2------||
E||-----------0-4-------------------------2-----1-----0-----0--------||




pra mim     assim                            seu      agradou
e||------------------------------------------------------------------------||
B||-----3-2-----3-----1-----1-----2-----1-0-1-----3-2-----3------0-----1---||
G||-----0-0-----2-----2-----0-----2-----2-1-1-----4-3-----2------1-----0---||
D||---2---2---0-----0-----2-----2-----0---0-0---5---5---0------0-----0-----||
A||-------0-----------------------------------0-----0----------------------||
E||-3-------2-----1-----0-----3-----1-----0-0---------2------1-----0-------||




    dia                fui eu
e||---------5-1-1-1-1-|-----0-0-0---------5---3-----------3---------0||
B||-------2---1-0-0-0-|-----1-3-2-------6---3---1-------5---------1--||
G||-----2-----2-2-1-1-|---0---0-0-----7-----0---1-----5---------2----||
D||---2-------0---0-0-|-------------3---------------5---------2------||
A||-------------2-----|-0-----0-0-0----------------------------------||
E||-3-------------0---|---------------------3---3-3---------2--------||




    comigo
e||---------1---0-------0-------------------------------------------3||
B||-------3---4-3-----0---0---------3-------2-------6-6-3-0-------5--||
G||-----2-----2-1-----5-----5-----4-------4-------5-----0-0-----5----||
D||---0-------4-2---5-----------2-------2-------3-------0-1---5------||
A||-2---------3-2-0-----------0-------0-------0----------------------||
E||-------------0---------------------------------------3-3-3--------||




   realmente           meia ...ção               tanto tempo...
e||---------0---------0-----|------------------1-----1-----0-------||
B||-------1---------5---0-3-|------0-----3-----0-----3-----1-1-1---||
G||-----2---------7-----2-1-|------5-----0---2-----1-----0---2-1---||
D||---2---------7-------2-2-|----5-----2---0-----3-----------2-2---||
A||---------------------2---|--0-----3-----------------------------||
E||-2---------7-----------0-|--------------------------0-----0-0---||
+-



                tanto tempo                       tentando
e||-----1-1-1-|---------------5-5-------0-0-------1-1-0-0----------||
B||-----0-3-3-|-----0-------5---------2---2-----1-1-1-0-0-0-0------||
G||---2---2-1-|-----5-----7---------0-----2-----2-2-2-2-2-1-1------||
D||-0---------|---5-----5---------------------0---0-------2-2------||
A||-----------|-0-----------------0-------0---------3-2------------||
E||-------0-0-|-------0---------------------1-------------0-4------||




              acontece                              mim    infelizmente
e||---------0------------------------------------------------------||
B||-------1---5-5-----5-5-5-----3---3-1-1---------0-3-3-------2----||
G||-----0-----3-3-----3-2-2-----2-2-2-0-0-------1---0-0-------0----||
D||---2-------5-5---5---5-5---0---0---2-2-----0-----2-2-----2------||
A||-0---------4---4-----4-------------------2-------------0--------||
E||-------------------------2-----1---0---0---------3---3----------||




                                                        agradou
e||-----2-------------------------------------5-----0-0------------||
B||-----3-----3-----1---2-2-------1-0-1-----5-------2-2-----3------||
G||---2-------2-----0---0-0-------2-1-1-----7---7---0-0-----2------||
D||---------0-----2---2-2-2-----0---2-2---5-------5-------0--------||
A||---------------------0---------------0-----------0--------------||
E||-2-----1-----0-----------3-1-----0-0-----------------2----------||




                             fui eu                se realmente
e||-------------------1-1-1-|---0-0-0-1-1-------3-------------1----||
B||-----0-----1-----2-1-1-0-|-1-1-3-2-1-1-3-0-5-5-------1-----3----||
G||-----1-----0-----2-2-2-1-|-0-0-0-0-0-0-0-0-5-5-------2---2------||
D||---0-----0-----2---0-----|-------------0-0-5-------2------------||
A||---------------------2---|-0---0-0-0-------3-----------2--------||
E||-1-----0-----3---------0-|-------------3-3-----3-2--------------||




        fui eu           canção                 meia 
e||---------0-0-0-1-1-1-1-1-------3---------0-0-----0-0-0-0-1-1-1-1||
B||-4-3-----1-3-2-1-1-0-0-3-----5---5-----1-3-3-0-3-1-1-3-2-2-2-1-0||
G||-2-1---0---0-0-2-2-0-0-0-----5---------2-2-2-2-1-0-0-0-0-2-2-0-0||
D||-4-2-----------------------5---------2-------2-2----------------||
A||-3---0-----0---0-------2-----------------2-------0---0-0-0------||
E||---0---------------3-----3---------2---------0-0-------------3-3||




canção                              fui eu
e||---------3---------0---0-0-----0-----0-0-0-1-1-1-1-3-3----------||
B||-------5---------1-----3-3-4-3-------1-3-2-1-1-1-0-1-1-------1--||
G||-----5---------2-------2-2-2-1-----0---0-0-2-2-0-0-0-0-------2--||
D||---5---------2-------------4-2-----------------------------2----||
A||-----------------------2---3-----0-----0-0-0-----2-3------------||
E||-3---------2---------2-------0-----------------3-------3-2------||




            meia           n faz
e||-------0-1-1-----------------1-----1-----0-0-0-1-1---0-----3----||
B||-------3-3-3-----0-----3-----0-----3-----1-1-1-3-3---0-----5----||
G||-----2---1-1-----5-----0---2-----1-----0---1-0-2-2-2-1---5------||
D||---------------5-----2---0-----3---------------0----------------||
A||---2-----3---0-----3-----------------------0-0---------0--------||
E||-2---------0-------------------------0-------------0-0----------||




                             n faz  cora...çã0
e||-----------5---0-0-0--------------------7-----------------------||
B||-----8-----6---3-1-1-0-1-3-6-5----------5-----------------------||
G||-----9---4-----1-0-0-2-4-4-4-7----------5-----------------------||
D||---7---0-----3---2---2-2-3-3-6----------7-----------------------||
A||---------------------0-0-5--------------0-----------------------||
E||-8-------------------------0-4----------------------------------||



Bola de Meia
Letra


Tanto tempo pra pensar
Mas no meio na correria acho que não deu
Eu tentando concertar a nossa história
Mas sem a sua ajuda, não aconteceu

Acontece que se fosse esperta
E desse tempo ao tempo
Não seria assim
Sugando tudo o que tenho de forças
Eu ja não estou querendo mais você pra mim

Infelizmente é assim
Termina-se uma história
Que a gente mal começou
Se tomasse cuidado com meus sentimentos
Talvez meu coração ainda fosse seu

Esse final não me agradou
E o nosso entendimento
Não aconteceu
Eu que lutei um dia pra te ter ao meu lado
Agora eu te confesso
Quem não quer sou eu

Fui eu quem te dei
O primeiro beijo
O primeiro toque
A primeira canção
Se realmente quer ficar comigo
Não faz bola de meia com meu coração

Tanto tempo, tanto tempo

Clipes

Cifra Club Pro

Aproveite o Cifra Club com benefícios exclusivos e sem anúncios
Cifra Club Pro
Aproveite o Cifra Club com benefícios exclusivos e sem anúncios