Life On Mars

Seu Jorge

Principal
Ab
234
431114
Am
123
X02210
Bb
234
X13331
Bb7
34
X13131
E7
1234
022130
Ebm7
1234
XX1322
F
234
133211
F#
234
244322
G#
234
431114
Gm
34
355333
Tom: G
Anderson film "The Life Aquatic" which features his own portugese acoustic remakes of
David Bowie songs. He is beginning to become popular in America, which is the only
country that matters anyways. Just kidding.  Mostly.



VERSE

#1t1##1t2#E|-----1--------0-------3--2-3-0------3---------------------------------|
B|-----1--------0---------------------3-----1----------4----------------|
G|-----2--------1-----2---------------3-----2----------5------3h5-5p3---|
D|-----3--------0---1------0-0--------5--------3-----5------5---------5-|
A|---3--------2---------------------5--------------3------3-------------|
E|-1--------0---------------------3------1------------------------------|#/1t2##/1t1#

#2t1##2t2#E|-------------------------------------8--------------------------------------------|
B|-----------------------------------9---9--------2----------4----------------------|
G|------8---------9-------10-------8-----------------------2---2--------------------|
D|---6--6------6--6----6--6------8------------3---3------1-------1------------------|
A|-6--------7--------8---------9------------4---------0-----------------------------|
E|----------------------------------------------------------------------------------|#/2t2##/2t1#

#3t1##3t2#E|-----1--------2----------|
B|-----2----------4--------|
G|-----3------4-----4------|
D|---3------4--------------|
A|-1------2----------------|
E|-------------------------|#/3t2##/3t1#

cHORUS

#4t1##4t2#E|-6---------6-------------3--------------------------|
B|-6-----------6-----------3--------3-3---------------|
G|-7-------8-----8---------3--------3-3---------------|
D|-8-----8---------8-------5-------------4------------|
A|-8---6-----------------5-------4---------4----------|
E|-6-------------------3-------2----------------------|#/4t2##/4t1#

#5t1##5t2#E|------1---------------------------------------------|
B|--------1---------1---------4----------7------------|
G|----------2-------1---------5----------8------------|
D|----------------2---------5----------8--------------|
A|----3---------3------1--3------3-5-6----------------|
E|-1--------------------------------------------------|#/5t2##/5t1#


        Gm F# F  E7 F F# G# Ab Am Bb Bb7 Ebm7
life on mars...

The rest of the song is pretty much the same.
Composição: David BowieColaboração e revisão: