busca

Mina do Condomínio

Seu Jorge

(intro) (0:00~0:21)
G|---------------|
D|---------------|
A|-----5--7------|
E|--7------------|

(verso) (0:21~1:00)
G|------------------------------------------------|
D|------------------------------------------------|
A|-----9--7-------9--7----7-----7-------7--9------|
E|--7----------7-------------8-------9------------|

(1:01~1:10)
G|-------------------------------------------------|
D|-------------------------------------------------|
A|--------------(2)/9---------------(2)/9----------|
E|--7~-/2----7~----------7~/2----7~----------------|

(1:11~1:17)
G|----------------------------------------|
D|--------11~----------11~----------11~---|
A|-----9------------9------------9--------|
E|--7------------7------------7-----------|

(1:18~1:28)
G|-----------------------------------------------|
D|-----------------------------------------------|
A|--7-----7----7-----7----7-----7-------7--9-----|
E|-----8----------8----------8-------9-----------|

(1:29~1:38)
G|-----------------------------------------|
D|----------------------11~----------11~---|
A|-----9--7----------9------------9--------|
E|--7-----0-------7------------7-----------|

(1:39~1:50)
G|---------------------------------------------------------|
D|---------------------------------------------------------|
A|--7-----7----987-----7----7-----7-------7--9~-------987~-|
E|-----8------------8----------8-------9----------7--7-----|

(refrão) (1:51~:2:10)
G|----------------------------------------------------------------------------------|
D|----------------------------------------------------------------------------------|
A|------987~7---789--------987-7-----5---7-7-----7-7------5-x7------789-9-7---------|
E|--7--7--------------7--7---------7---7-------7--------7--------9-9--------0-x-987-|

G|----------------------------------------------------------------------------------|
D|----------------------------------------------------------------------------------|
A|------987~7---789--------987-7-----5---7-7-----7-7------5-x7-----789-9~-----------|
E|--7--7--------------7--7---------7---7-------7--------7-------9-9-----------------|

(depois)
G|-------------------------------------------------|
D|-------------------------------------------------|
A|--------------(2)/9---------------(2)/9----------|
E|--7~-/2----7~----------7~/2----7~----------------|

(verso)
G|------------------------------------------------|
D|------------------------------------------------|
A|-----9--7-------9--7----7-----7-------7--9------|
E|--7----------7-------------8-------9------------|

G|----------------------------------------------------------|
D|-----------9*-9*-7----------------------------------------|
A|-----9--7---------8-------9--7----7-----7-------7--9------|
E|--7--------------------7-------------8-------9------------|

G|------------------------------------------------| 2x
D|------------------------------------------------|
A|-----9--7-------9--7----7-----7-------7--9------|
E|--7----------7-------------8-------9------------|

G|-------------------------------------------------|
D|-------------------------------------------------|
A|--------------(2)/9---------------(2)/9----------|
E|--7~-/2----7~----------7~/2----7~----------------|

G|----------------------------------------|
D|--------11~----------11~----------11~---|
A|-----9------------9------------9--------|
E|--7------------7------------7-----------|

G|-------------------------------------------------|
D|-------------------------------------------------|
A|--7-----7----7-----7----567-----7-------7--9-----|
E|-----8----------8------------8-------9-----------|

G|-----------------------------------------|
D|----------------------11~----------11~---|
A|-----9--7~---------9------------9--------|
E|--7-----0~------7------------7-----------|

G|---------------------------------------------------------|
D|---------------------------------------------------------|
A|--7-----7----987-----7----7-----7-------7--9~-------987~-|
E|-----8------------8----------8-------9----------7--7-----|

(refrão)
G|------------9---9----------------------------------------------------------------------|
D|---------------------------------------------------------------------------------------|
A|------987-7---7---789--------987-7------5---7-7-----7-7------5-x7------789-9-7---------|
E|--7--7-------------------7--7---------7---7-------7--------7--------9-9--------0-x-987-|

G|-------------9*--------------------------------------------------------------------|
D|----------------------------------------------------------------------------------|
A|------987-7----789--------987-7-----5---7-7-----7-7------5-x7-----789-9-7----------|
E|--7--7---------------7--7---------7---7-------7--------7-------9-9--------0-x-987--|

G|-------------9*--------------------------------------------------------------------|
D|-----------------------------------------------------------------------------------|
A|------987~7----789--------567-7-----5---7-7-----7-7------5-x7------789-9-7---------|
E|--7--7---------------7--7---------7---7-------0--------7--------9-9--------0-x-987-|

G|------------9---9----------------------------------------------------------------------|
D|---------------------------------------------------------------------------------------|
A|------987-7---7---789--------987-7------5---7-7-----7-7------5-x7------789-9-7---------|
E|--7--7-------------------7--7---------7---7-------7--------7--------9-9--------0-x-987-|

Clipes

Cifra Club Pro

Aproveite o Cifra Club com benefícios exclusivos e sem anúncios
Cifra Club Pro
Aproveite o Cifra Club com benefícios exclusivos e sem anúncios